Oops, an error
Loading. Please wait.

Wrecking Ball Tab

version 1
version 1

Whole song

Interactive

35,757 views 42 this week
2 commentsread comments
1 2 3 4 5
excellent!
x 14
add to favorites
launch autoscroll
font size
0
reset
how to read this tab
guitar tuner
Autoscroll
slow
fast
+/-
esc
set tempo
stop
Help us to improve Ultimate-Guitar.com Take our survey!
×
Author
Difficulty
Tuning
Capo
intermediate
D A D G B E
3rd fret
Miley Cyrus - Wrecking Ball (Sungha Jung) 

Tuning:DADGBe

Capo: 3rd Fret



Intro:

e-------------------------------------------------------------------------|
B--3-3-3-3-3-3-3-3--3-3-3-3-3-3-3-3---2-2-2-2-2-2-2-2--3-3-3-3-3-3-3-3----|
G--2-2-2-2-2-2-2-2--2-2-2-2-2-2-2-2---2-2-2-2-2-2-2-2--0-0-0-0-0-0-0-0----|
D-------------------------------------------------------------------------|
A--2-----------2----0-----------0-----0-----------0----5-----------5------|
D-------------------------------------------------------------------------|

VERSE: 

e-2-------2-------2-------2-----------------------------------------------|
B-----0-------0-------------------0-2---------2-0-2-3-----0---------------|
G-2-------2-------2---2---2---2-------------------------------------------|
D-------------------------------------------------------------------------|
A-2-2-2-2-2-2-2-2-2-2-0-0-0-0-0-0-0-0-0-0-0-0-0-0-0-0-0-0-5-5-5-5-5-------|
D-------------------------------------------------------------------------|




Don't you ever say I just walked away
I will always want you
I can't live a lie, running for my life
I will always want you

e-------------------------------------------------------------------  (---)
B-0---0---0-------0---0---0-----------------------------------------  (-0-)
G-----------2---------------2-----2---2---2-0-----------------------  (-0-)End second time with this
D-------------4---------------4-----------------4-------------------  (-0-)
A-2-2-2-2-2-2-2-2-----------------0-0-0-0-0-0-0-0-0-5-5-5-5-5-5-5---  (-5-)
D-----------------0-0-0-0-0-0-0-0-----------------------------------  (---)


CHORUS:

e-3-3-3-3-3--3---2-2---0--0-0---3-2p0-----3---2-2------------|
B-0-0-0-0-0--3---3-3---0--0-0---0-----3---3---3-3---0--0-0---|
G-0-0-0-0-0--2---2-3---2--2-2---2---------2---0-0---0--0-0---|
D-0-0-0-0-0--0---0-0---2--2-2---2---------0---0-0---0--0-0---|
A-5-5-5-5-5------------0--0-0---0---------2---2-2---5--5-5---|
D------------------------------------------------------------|

e-3-2p0----3---2-2---0--0-0---3-2p0----------3-2-0-3---3-3---|
B-0-----3--3---3-3---0--0-0---0-----3--3---3-3-3-3-0---0-0---|
G-0--------2---2-2---2--2-2---2--------2---2-2-0-0-0---0-0---|
D-0--------0---0-0---2--2-2---2--------0---0-0-0-0-0---0-0---|
A-5------------------0--0-0---0--------2---2-2-2-2-5---5-5---|
D------------------------------------------------------------|

e---------3-2-0-3---
B-3-3---3-3-3-3-0---
G-2-2---2-2-0-0-0---
D-0-0---0-0-0-0-0---
A-2-2---2-2-2-2-5---
D-------------------

REPEAT VERSE AND CHORUS


BRIDGE

I never meant to start a war
I just wanted you to let me in
And instead of using force
I guess I should've let you win
I never meant to start a war
I just wanted you to let me in
I guess I should've let you win

e----------------------3-2-2p--0-----------------3-2-2p--0-------|
B-2---3-----3--3---3---------------2---3-3---3---------------2---|
G---0-0-0---0--0-0-0-0-------------2---2-2-2-2-2-------------2---|
D--------------------------------0-------------------------0-----|
A-----5----5---5-------------2-------2---2-------------0---------|
D-5--------------------------------------------------------------|

e-------------3-2-2p--0--------------------3-2-2p--0-------|
B--3--3---3---3-----------2-----2--3---3---3-----------2---|
G--2--2-2-2-2-------------0-----0--2-2-2-2-------------0---|
D-----------------------0-----0----------------------0-----|
A-0---0----------------------------------------------------|
D-------------------4--------------4-------------5---------|

e--------------3-2-2p--0-------------------3-2-2p--0-----0-----|
B---2--3---3---------------2----3--3---3-------------2---------|
G---0--2-2-2-2-------------2----2--2-2-2-2-------------3---3---|
D-0----------------------0-------------------------------------|
A--------------------2--------0----0---------------------------|
D------5-----------------------------------------4---------4---|

e--------------------------------------------------------|
B-0---0---0-------0---0---0------------------------------|
G-----------2---------------2-----2---2---2-0------------|
D-------------4---------------4-----------------4--------|
A-2-------------------------------0-----------------5----|   
D-----------------0--------------------------------------|

REPEAT CHORUS

END ON

e-2-
B-0-
G-0-
D-0-
A-0--
D-5-
Suggest correction
comments
print report bad tab
2 comments total.
+1 reply
nintendo9713 72 wrote on May 27 2014, 05:26 pm

I think the intro and verse should have base notes B D A G like this:

Intro:
e-----------------------------------------------------------------------|
B--3-3-3-3-3-3-3-3--3-3-3-3-3-3-3-3---2-2-2-2-2-2-2-2--3-3-3-3-3-3-3-3--|
G--2-2-2-2-2-2-2-2--2-2-2-2-2-2-2-2---2-2-2-2-2-2-2-2--0-0-0-0-0-0-0-0--|
D-----------------------------------------------------------------------|
A--2-----------2----------------------0-----------0---------------------|
D-------------------0-----------0----------------------5-----------5----|
Verse:
e-2-------2-------2-------2---------------------------------------------|
B-----0-------0-------------------0-2---------2-0-2-3-----0-------------|
G-2-------2-------2---2---2---2-----------------------------------------|
D-----------------------------------------------------------------------|
A-2-2-2-2-2-2-2-2-2-2-----------------0-0-0-0-0-0-0-0-0-0---------------|
D---------------------0-0-0-0-0-0-0-0---------------------5-5-5-5-5-----|

You can see from his video and from the highest rated chord submission these are the bass notes.

0 reply
Bagheera1996 10 wrote on February 13 2015, 08:57 am

he's right, but awesome tab!! I can play everything except the brigde :D

guest
You may want to rate the tab now too:
select rating
Please do not post tabs as comments. Select "correction" instead!