Oops, an error
Loading. Please wait.

You Raise Me Up tab

version 1
version 1

Whole song

Interactive

74,373 views 90 this week
4 commentsread comments
1 2 3 4 5
x 16
add to favorites
×
Save as Personal and add changes to this tab that will be seen only by you. Learn more ›
×
You can save this tab as Personal to edit and correct it or add notes. All changes will be seen only by you. Learn more »
launch autoscroll
font size
0
reset
how to read this tab
guitar tuner
edit
Autoscroll
slow
fast
+/-
esc
set tempo
stop
Title: You Raise Me Up

Artist: Sungha Jung

Arranged by: Sungha Jung

Tabbed by: Ryan R. Gonzales

Location: Rosario, Batangas - Philippines

Tuning: Drop D - e B G D A D (Capo on 5th fret)


    ^            ^                  ^
E|-------------|------------------|-------------------|--------------------|
B|--1--1--1--1-|-1--1--1----------|-------------------|--------------------|
G|-------------|------------------|-2~-----0----------|-----------------2--|
D|--3--3--3--3-|-3--3--3--------3-|-----3-----3--3--0-|----3--3~--2--3-----|
A|-------------|----------3--3----|-------------------|-3------------------|
D|-------------|------------------|-3~----------------|-3------------------|

    ^
E|--------------------|---------------0-|-0-h-1~-------------------|--------------------|
B|--1~-----3-----1----|---------1--1----|------------3-----1-----1-|--------------------|
G|------------------2-|-0~--------------|---------------------3----|--------------0--2--|
D|------3-------------|-----------------|---------3----------------|----3~--2--3--------|
A|---------1--0-------|-3~--1~----------|---------------1----------|--------3-----1-----|
D|--3~----------------|-----------------|-0~-----------------------|-3------------------|

          ^            v
E|-------------------|--------------0-|-1~-------------------|----------------3--1-p-0--|
B|-------------------|-------1-h-3----|--------3-----1-----1-|-------------1------------|
G|-----2--2--0-------|----------------|-----------------3----|--------------------------|
D|--------------3--2-|-3~~------------|-----3----------------|-------3------------------|
A|--------3----------|-0~~------------|-----------1----------|----0-----1---------------|
D|--3----------------|-3~~------------|-0~-------------------|-3------------------------|

                                                   ^
E|--0-h-1~-------------------|-----------------0-|-------------------|----1------------------|
B|-------------3-----1-----1-|-------------------|-6~-----3-----1----|-1~--------------------|
G|----------------------3----|----------3-s-5----|-5~--------------3-|-----------------0--2--|
D|----------3----------------|----3--------------|-----3~------------|----------2-h-3--------|
A|----------------1----------|-------1~----------|-----------1-------|-------1---------------|
D|--0~-----------------------|-3-----------------|-0~----------------|-3~--------------------|

          ^            ^                       ^             ^
E|-------------------|-----------------------|-------------|------------------|
B|-------------------|-----------------------|-0~----------|------------------|
G|-----2--2--0-------|---------------------0-|-0~----------|-2---0--0---------|
D|--------------3--2-|-3----------------0----|-0------0----|-0~--------0-h-2--|
A|--------3----------|-0---------------------|-2---2-----2-|-3~---------------|
D|--3----------------|-3--3--3--3--2~~-------|-------------|-5~---------------|

                      ^      ^
E|-------------------------|----------|-0--------------|--------------------|
B|-----------------------0-|-3~-------|-0-----0-h-3--0-|--------------------|
G|--------0--------0--0----|-0~-----0-|-------0--------|-2~-----------------|
D|--0--------0-----0--0----|-----0----|----0-----------|----0---------------|
A|-----2-------------------|----------|-3--------------|-------0------------|
D|--5-----------5-----4----|-2~-------|----------------|-0--------0-h-2--4--|

    ^             ^             ^                ^     ^
E|------------2-|-3~----------|-0-h-2--0-------|----------|
B|--0-h-3--3----|-0~----------|-3---------3--1-|-3-----0--|
G|--0-----------|-0~--------0-|-0--------------|-0-----0--|
D|--0-----------|--------2----|----------------|----0-----|
A|--------------|-----2-------|-3--------------|----------|
D|--------------|-2~----------|----------------|-5--------|

                               ^
E|---------------------------|------------|---------------|----------------------0--2-h-3--|
B|------------------1-h-3--1-|-0--------3-|-0-------------|-------------------3------------|
G|---------------0-----------|-0----------|-------2--0----|-0------------------------------|
D|------------2--------------|-------0----|----2--------4-|-------0--------0---------------|
A|--0-h-2--3-----------------|----2-------|-3--------0----|----2-----2---------------------|
D|---------------------------|-5----------|---------------|-5-----------5--------4---------|

    ^             ^                ^     ^
E|--3~----------|-0-h-2--0-------|-----------------------5--3-p-2--|
B|--0~----------|-3~--------3--1-|-3-----0------------3------------|
G|--0~--------0-|-0~-------------|-0-----0-------------------------|
D|---------2----|----------------|---------------------------------|
A|------2-------|-3~-------------|----2-----0-h-2--3---------------|
D|--2~----------|----------------|-0-------------------------------|

    ^             ^              ^     ^                    ^
E|--3~----------|-2-p-0~-------|--------------------------|-----------|
B|--0~----------|-3~------3--1-|-3-----0----------------7-|-8~--------|
G|--0~--------0-|-0~-----------|-0-----0-------------7----|--------0--|
D|---------2----|--------------|--------------------------|-----0-----|
A|------2-------|-3~-----------|----2-----0-h-2--3~-------|-7~--------|
D|--2~----------|--------------|-0------------------------|-----------|

          ^       ^     ^                              ^
E|--0-----------|-------3-|--------------------------|-------------|
B|--------3--1--|-3-----0-|-----------------1-h-3--1-|-0--------3--|
G|--------0-----|-0-------|--------------0-----------|-0-----------|
D|-----2--------|----0----|-----------2--------------|-------0-----|
A|--3-----------|---------|-0-h-2--3-----------------|----2--------|
D|--------------|-5-------|--------------------------|-5-----------|

                                 ^            ^            ^
E|----------------|------------|------------|------------|----0--2--4--|
B|--0-------------|------------|------------|------------|-------------|
G|--------2--0----|-0~---------|-2~---------|-0~---------|-1-----------|
D|-----2--------4-|-0~---------|-0~----0----|-0~---------|-0-----------|
A|--3--------0----|------------|----------0-|-2~---------|-------------|
D|----------------|-5--5--5--5-|-4--4-------|-5--5--5--5-|-2-----0-----|

    ^                                           |-------|
E|--5~---------|-4--------2--0-------|-0-------------------------|-------5--5-p-4--|
B|--5~---------|-------------------3-|---------------------------|----3------------|
G|--2-----2----|-------2-------------|-------2--2-s-4-s-2--1-h-2-|-----------------|
D|-----2-----2-|----2-----------2----|----2----------------------|-0---------------|
A|-------------|---------------------|-0-------------------------|-----------------|
D|--4~---------|-0-------------------|---------------------------|-----------------|

    ^
E|--5~---------|-4--------2--0-------|-0----------|--------4--|
B|--5~---------|-------------------3-|------------|-----3-----|
G|--2-----2----|-------2-------------|-------2----|-----------|
D|-----2-----2-|----2-----------2----|----2-----2-|-0~--------|
A|-------------|---------------------|-0----------|-----------|
D|--4~---------|-0-------------------|------------|-----------|

    ^
E|--5~----------4-----2-p-0----|-0-----4-s-5-|-----------------------|-----------|
B|--7~-----------------------3-|-------------|--------------3-h-5--3-|-2~-----2--|
G|-----------------------------|----2--------|-----------2-----------|-----2-----|
D|--------4--------4-----------|-------------|--------0--------------|-2~--------|
A|-----4-----------------------|-0-----------|-2-h-4-----------------|-----------|
D|--4~-------0-----------------|-------------|-----------------------|-----------|

                                       T
E|----------|---------|-------------------|----0--2--4--|
B|--2-----0-|---------|-------------2~-x--|-------------|
G|-----2----|-2-----1-|-2~----2--------x--|-------------|
D|----------|----2----|----2-----2-----x--|-------------|
A|----------|---------|-0--------------x--|-0-----------|
D|--0-------|-2-------|-------------------|-------------|

    ^
E|--5~----------4-----2-p-0----|-0-----4-s-5-|-----------------------|-----------|
B|--7~-----------------------3-|-------------|--------------3-h-5--3-|-2~-----2--|
G|-----------------------------|----2--------|-----------2-----------|-----2-----|
D|--------4--------4-----------|-------------|--------0--------------|-2~--------|
A|-----4-----------------------|-0-----------|-2-h-4-----------------|-----------|
D|--4~-------0-----------------|-------------|-----------------------|-----------|

                         ^               ^   ^
E|----------|----------|------------|----------------|
B|--2-----0-|----------|----------0-|----------------|
G|-----2----|-2-----1~-|-2--2-------|----2~--1-h-2~--|
D|----------|----2-----|-2----------|----2~--2~------|
A|----------|----------|-3-----3----|-2------0~------|
D|--0-------|-2--------|------------|----------------|



*************************************************

h - hammer on
s - slide
p - pull off
x - dead string
T - tap the strings
~ - let the note ring / vibrato
^ - pluck the strings smoothly from top to bottom
v - pluck the strings smoothly from bottom to top

*************************************************



echo "Hello World!";

Play until your fingers bleed!

            
            
Suggest correction
Creating personal tab
Creating personal tab
You can edit any tab online and save it as your Personal.

You can edit, replace or remove any tab part or add personal notes – all changes will be seen only by you.

Personal tabs can be accessed anytime from any device, even offline.
Learn more »
comments
print report bad tab
4 comments total. Showing first comments.
0 reply
henry comia 10 Jun 24, 2011 07:55 PM

nc gling ^^

0 reply
daisukeaa619 10 Sep 09, 2015 12:28 AM, edited at 05:51 am

waw

0 reply
xModdingSingz 10 Oct 09, 2015 10:41 AM

I was born in the same place as U made this tab xD But now I'm in England :(

guest
You may want to rate the tab now too:
select rating
Wanna post a correction for this tab? Suggest correction