Oops, an error
Loading. Please wait.

Summer Of Love Tab

2,288 views 1 this week
no commentswrite comment
1 2 3 4 5
2 more votes to show rating
add to favorites
launch autoscroll
font size
0
reset
how to read this tab
guitar tuner
Autoscroll
slow
fast
+/-
esc
set tempo
stop
Help us to improve Ultimate-Guitar.com Take our survey!
×
Author
It's certainly too few tabs of house songs.

First bar is down x4, second bar is down up x2, etc for every second bar. 

Please listen to the song to get the rhythm right. 

Maybe I'll make a chord version of this song too.



e||-7-7--7-7-|-5-5-5-5-|-3-3--3-3-|-3-3-3-3-| 
B||-8-8--8-8-|-7-7-7-7-|-5-5--5-5-|-5-5-5-5-|
G||-9-9--9-9-|-7-7-7-7-|-5-5--5-5-|-5-5-5-5-|
D||-9-9--9-9-|-7-7-7-7-|-5-5--5-5-|-5-5-5-5-|
A||-7-7--7-7-|-5-5-5-5-|-3-3--3-3-|-3-3-3-3-| 
E||----------|---------|----------|---------|

e||-3-3--3-3-|-5-5-5-5-|-7-7--7-7-|-7-7-7-7-|
B||-5-5--5-5-|-7-7-7-7-|-8-8--8-8-|-8-8-8-8-|
G||-5-5--5-5-|-7-7-7-7-|-9-9--9-9-|-9-9-9-9-|
D||-5-5--5-5-|-7-7-7-7-|-9-9--9-9-|-9-9-9-9-|
A||-3-3--3-3-|-5-5-5-5-|-7-7--7-7-|-7-7-7-7-|
E||----------|---------|----------|---------|


Please send me an e-mail if you find anything wrong with these tabs.

Suggest correction
Give kudos to tab author, rate the tab!
1 2 3 4 5
comments
print report bad tab
guest
You may want to rate the tab now too:
select rating
Wanna post a correction for this tab? Suggest correction