Oops, an error
Loading. Please wait.
3,696 views 3 this week
no commentswrite comment
1 2 3 4 5
1 last vote to show rating
add to favorites
×
Save as Personal and add changes to this tab that will be seen only by you. Learn more ›
×
You can save this tab as Personal to edit and correct it or add notes. All changes will be seen only by you. Learn more »
launch autoscroll
font size
0
reset
how to read this tab
guitar tuner
edit
Autoscroll
slow
fast
+/-
esc
set tempo
stop
probably my favourite song off of diary. i couldn't find tabs for this anywhere so 
my best shot at it.

sunny day real estate - 48

drop D tuning

INTRO
guitar 1
---------|
---------|
----7p6--|
----7-7--|etc...or you can play it on the open d chord shape
----5-5--|
---------|

guitar 2
----------------------------------------------|
----------------------------------------------|
----7-------/12-12-10/12\10-------------------|
----x---------x--x-x---x-x--------------------|
----5-------/10-10-9-/10\9--------------------|
----------------------------------------------|


VERSES
guitar 1 plays around with the A-octave at the 12th fret, 5th string.

Something like this:
-----------|
-----------|
--14-------|
-----(14)--| (Studio version sounds without this, however live performances of Jeremy show him playing this)
-12--------|
-----------|


guitar 2 plays a variation of what it played in the intro, just more strumming. or you 
play the intro chords of guitar 1 but with the bass notes D and then G. you get it right? 
around with it.


BREAK
there's probably the two guitars playing, but this one's tabbed out for one.
---------------------------------------------------------------------|
---------------------------------------------------------------------|
--999999-10-1010101010109---/141414141414-15----15-141414------------|
--777777-8--8-8-8-8-8-8-7----x-x-x-x--x-x----12----121212------------|
--777777-8--8-8-8-8-8-8-7---/121212121212-12-------121212------------|
--777777-8--8-8-8-8-8-8-7----0------------0--------0-----------------|

-------------------------------------------------------------------|
-------------------------------------------------------------------|
--999999-10-1010101010109---/141414141414-15-15151515--141414------|
--777777-8--8-8-8-8-8-8-7----x-x-x-x--x-x-----x-x-x-x---x-x-x------|
--777777-8--8-8-8-8-8-8-7---/121212121212-13 13131313--121212------|
--777777-8--8-8-8-8-8-8-7----0------------0--------0---------------|


CHORUS (or pre chorus i guess)
this is all strummed and such but i won't write it out
-------------------------------------------|-----------------|
-------------------------------------------|-----------------|
-7------7/9---9-10-----10-------12---------|---7-6-----------|
-x------x-x---x-x------8--------10----(x4)-|---7-7-----------|etc...
-5------5/7---7/8------8--------10---------|---5-5-----------|
-0------0-----0--------8--------10---------|---0-0-----------|

end on G
------------------------|
------------------------|
-7----------------------|
-7----------------------|
-5----------------------|
-5----------------------|
Suggest correction
Creating personal tab
Creating personal tab
You can edit any tab online and save it as your Personal.

You can edit, replace or remove any tab part or add personal notes – all changes will be seen only by you.

Personal tabs can be accessed anytime from any device, even offline.
Learn more »
Give kudos to tab author, rate the tab!
1 2 3 4 5
comments
print report bad tab
guest
You may want to rate the tab now too:
select rating
Wanna post a correction for this tab? Suggest correction