Oops, an error
Loading. Please wait.

Every Shining Time You Arrive tab

11,559 views 33 this week
3 commentsread comments
1 2 3 4 5
x 10
add to favorites
×
Save as Personal and add changes to this tab that will be seen only by you. Learn more ›
×
You can save this tab as Personal to edit and correct it or add notes. All changes will be seen only by you. Learn more »
launch autoscroll
font size
0
reset
how to read this tab
guitar tuner
edit
Autoscroll
slow
fast
+/-
esc
set tempo
stop
Author
i know you dont care, but this is my favourite song =) lyrics are at the bottom

intro chords: Dan's lead
Cadd2 e minor
e---0--------0------ -0---7\--0-0--0--2--0-0--0-5\-0--3------|
b---3--------0------ ----------------------------------------|
g---0--------0------ ----------------------------------------|
d---2--------2------ ----------------------------------------|
a---3--------2------ ----------------------------------------|
e------------0------ ----------------------------------------|

chorus lead:
G F#
e----3-------2-------- ------------------------------|
b----3-------3-------- ---8-8------7-----(7)---------|
g----0-------0-------- ------------------------------|
d----0-------0-------- ------------------------------|
a----2--------------- -------------------------------|
e----3-------2-------- ------------------------------|

Bridge chords: G D e minor

"from the depths of my gloom" part:

e--0----0----------------0---|
b--3----5----------------0---|
g--0----0---repeat-then--0---| play intro chords until the end
d--2----4----------------2---|
a--3----5----------------2---|
e------------------------0---|

            
            
Suggest correction
Creating personal tab
Creating personal tab
You can edit any tab online and save it as your Personal.

You can edit, replace or remove any tab part or add personal notes – all changes will be seen only by you.

Personal tabs can be accessed anytime from any device, even offline.
Learn more »
comments
print report bad tab
3 comments total.
+1 reply
hAmMeTtIsGoD 30 Oct 05, 2006 11:41 AM

sorry for the lack of lyrics...

0 reply
HolyYetti 121 Feb 09, 2009 04:59 PM

i think instead of the e minor it may be an Asus2
e---0--------0------
b---3--------0------
g---0--------2------
d---2--------2------
a---3--------0------
e-------------------

0 reply
bwiechart 10 Jul 31, 2014 04:37 PM

Great tab. instead of the Em at the end of the "from the depths of my gloom..." part, I like to play this:

e---0------
b---7------
g---0------
d---5------
a---7------
e----------

guest
You may want to rate the tab now too:
select rating
Wanna post a correction for this tab? Suggest correction