Oops, an error
Loading. Please wait.

Seven tab

version 1
version 1

Whole song

Interactive

35,224 views 75 this week
3 commentsread comments
1 2 3 4 5
x 11
add to favorites
×
Save as Personal and add changes to this tab that will be seen only by you. Learn more ›
×
You can save this tab as Personal to edit and correct it or add notes. All changes will be seen only by you. Learn more »
launch autoscroll
font size
0
reset
how to read this tab
guitar tuner
backing track
0:00
0:00
edit
Autoscroll
slow
fast
+/-
esc
set tempo
stop
This Tab is from the website http://www.sunnydayrealestate.net.
Tabbed by Brian (Ansigod) McCall 
SEVEN - by Sunny Day Real Estate from the album
Diary. Written by Dan Hoerner and Jeremy Enigk.
D tuning (D G C F A D) = 1 full step down

   [Intro](@x)
   [G1 (right channel) distortion]
D |--------------------------------------------------------------------|
A |--------------------------------------------------------------------|
F#|-----11---7h9-----9-----9-----9-11----------------------------------|
D |-9------------7------7-----7----------------------------------------|
A |--------------------------------------------------------------------|
D |--------------------------------------------------------------------|
^repeat
G2 (left channel) distortion

D |-------10-------10----10-|-------10----------------------------------|
A |----12-------12----------|----12-------------------------------------|
F#|-14-------14-------14----|-14-------14-14fbr-------------------------|
D |-------------------------|-------------------------------------------|
A |-------------------------|-------------------------------------------|
D |-------------------------|-------------------------------------------|
repeat^ ^last time only

  [G1]
D |---------------------------------7-----7---------7-----7------------|
A |--------------------------------------------------------------------|
F#|-----------------------------7h9---7h9---7h9-7h9---7h9---7h9--------|
D |--------------------------------------------------------------------|
A |-7--7-7--7-7-7-9--9-9--9-9-9----------------------------------------|
D |--------------------------------------------------------------------|

  [G2]
D |---------------------------------------------------------------------|
A |---------------------------------------------------------------------|
F#|-9--9-9--9-9-9-11--11-11--11-11-11-14--14-14--14-14-14-7--7-7--7-7-7-|
D |-9--9-9--9-9-9-11--11-11--11-11-11-14--14-14--14-14-14-7--7-7--7-7-7-|
A |-7--7-7--7-7-7-9---9--9---9--9--9--12--12-12--12-12-12-5--5-5--5-5-5-|
D |---------------------------------------------------------------------|

*1 (verse)

G1 slight distortion

D |-0-0-0--0-0---------------------------------------------------------|
A |-8-8-8--8-8-----0---0---0---0---0--0--------------------------------|
F#|-9-9-9--9-9-----12--11--12--11--12-11-----5-5-5-5--5-5--------------|
D |-9-9-9--9-9-X-X-12--12--12--12--12-12-X-X-5-5-5-5--5-5--------------|
A |-7-7-7--7-7-X-X-10--10--10--10--10-10-X-X-3-3-3-3--3-3--------------|
D |------------X-X-----------------------X-X---------------------------|

D |-----------------------0-0-0--0-0-----------------------------------|
A |-----------------------8-8-8--8-8-----0---0---0---0---0--0----------|
F#|-12--11--12--11--12-11-9-9-9--9-9-----12--11--12--11--12-11---------|
D |-12--12--12--12--12-12-9-9-9--9-9-X-X-12--12--12--12--12-12---------|
A |-10--10--10--10--10-10-7-7-7--7-7-X-X-10--10--10--10--10-10...------|
D |----------------------------------X-X-------------------------------|
^^^^^distortion^^^^^ ^repeat once

 [G2 heavy distortion]
D |--------------------------------------------------------------------|
A |--------------------------------------------------------------------|
F#|--------------------------------------------------------------------|
D |--------------------------------------------------------------------|
A |--------------------------------------------------------------------|
D |-------------------------------------------------------------15\----|

D |--------------------------------------------------------------------|
A |--------------------------------------------------------------------|
F#|--------------------------------------------------------------------|
D |-5---4---5---4---5--4--2--------------------------------------------|
A |-5---4---5---4---5--4--2--------------------------------------------|
D |-3---2---3---2---3--2--0--------------------------------------------|

D |--------------------------------------------------------------------|
A |--------------------------------------------------------------------|
F#|--------------------------------------------------------------------|
D |--------------------------------------------------------------------|
A |--------------------------------------------------------------------|
D |--------------------------------------------------------------------|

D |--------------------------------------------------------------------|
A |--------------------------------------------------------------------|
F#|--------------------------------------------------------------------|
D |-5---4---5---4---5--4-----------------------------------------------|
A |-5---4---5---4---5--4-----------------------------------------------|
D |-3---2---3---2---3--2-----------------------------------------------|

 [G1 distortion]
D |-0-0-0--0-0---------------------------------------------------------|
A |-8-8-8--8-8-----0---0---0---0---0--0--------------------------------|
F#|-9-9-9--9-9-----12--11--12--11--12-11-----5-5-5-5--5-5--------------|
D |-9-9-9--9-9-X-X-12--12--12--12--12-12-X-X-5-5-5-5--5-5-X-X----------|
A |-7-7-7--7-7-X-X-10--10--10--10--10-10-X-X-3-3-3-3--3-3-X-X----------|
D |-0-0-0--0-0-X-X-----------------------X-X--------------X-X----------|

D |-----------------------|
A |-0---0---0---0---0--0--|
F#|-12--11--12--11--12-11-|
D |-12--12--12--12--12-12-|
A |-10--10--10--10--10-10-|
D |-----------------------|
^repeat

 [G2 distortion]
D |--------------------------------------------------------------------|
A |--------------------------------------------------------------------|
F#|----------------0--5-5-5-5-5-5-5-5-5-5-5----------------------------|
D |----0--2-----0-----5-5-5-5-5-5-5-5-5-5-5----------------------------|
A |-------------------3-3-3-3-3-3-3-3-3-3-3....------------------------|
D |-0--------3---------------------------------------------------------|
*3 (pre-chorus)

 G1
D |--------------------------------------------------------------------|
A |--------------------------------------------------------------------|
F#|--------------------------------12-11-12-11-1211-12-11-12-11-1211---|
D |-2--/--7------------------------12-12-12-12-1212-12-12-12-12-1212---|
A |--------------------------------10-10-10-10-1010-10-10-10-10-1010---|
D |----------------7h8-------------------------------------------------|
repeat^
G2

D |--------------------------------------------------------------------|
A |--------------------------------------------------------------------|
F#|-----4-5--4-2-4-----4-5--4-2-4--/7--5--4----------------------------|
D |-2h4------------2h4----------------------5--4--5--4--5-4------------|
A |-----------------------------------------5--4--5--4--5-4------------|
D |-----------------------------------------3--2--3--3--3-4------------|
repeat^
End of pre-chorus (last time only before chorus)

 [G1]
D |--------------------------------------------------------------------|
A |--------------------------------------------------------------------|
F#|--------------------------------------------------------------------|
D |-----------------------11--9---11--9---11-9-------------------------|
A |--------------------------------------------------------------------|
D |-8---7---8---7---8--7-----------------------------------------------|

 [G2]
D |--------------------------------------------------------------------|
A |----------------------/10--10--10--10-10101010\---------------------|
F#|----------------------/9---9---9---9--9-9-9-9-\---------------------|
D |----------------------/7---7---7---7--7-7-7-7-\---------------------|
A |-3---2---3---2---3--2--0---0---0---0--0-0-0-0-----------------------|
D |--------------------------------------------------------------------|
*4 (chorus)

 [G1]
 ["You'll taste it. You'll taste it. In time....."]
D |--------------------------------------------------------------------|
A |--------------------------------------------------------------------|
F#|-------12-12-12-12-------------------9-9-9-9-9-9-9-9-9-9-9-9--------|
D |-12-12-12-12-12-12-5--5--5--5--5--5--9-9-9-9-9-9-9-9-9-9-9-9--------|
A |-10-10-10-10-10-10-5--5--5--5--5--5--7-7-7-7-7-7-7-7-7-7-7-7--------|
D |-------------------3--3--3--3--3--3--0-0-0-0-0-0-0-0-0-0-0-0--------|

^repeat
G2
D |--------------------------------------------------------------------|
A |--------------------------------------------------------------------|
F#|-12-12-12-12-12-12-12-12-12-12-12-12-11-11-12--12-12--14-14--12--12-|
D |-12-12-12-12-12-12-12-12-12-12-12-12-X--X--X---X--X---X--X---X---X--|
A |-10-10-10-10-10-10-10-10-10-10-10-10-9--9--10--10-10--12-12--10--10-|
D |--------------------------------------------------------------------|
repeat^
*5 (end of chorus, and end of song)

[G1]
  pm--------------------------------------------------------------------|
D |---------------------------------------------------------------------|
A |---------------------------------------------------------------------|
F#|-9-9-9-9-9-9-9-9-9-9-9-9-9-9-9-9-12--11--12--11--12-11-9-------------|
D |-9-9-9-9-9-9-9-9-9-9-9-9-9-9-9-9-12--12--12--12--12-12-9-------------|
A |-7-7-7-7-7-7-7-7-7-7-7-7-7-7-7-7-10--10--10--10--10-10-7-------------|
D |---------------------------------------------------------------------|

[G2]
  pm--------------------------------------------------------------------|
D |---------------------------------------------------------------------|
A |---------------------------------------------------------------------|
F#|---------------------------------------------------------------------|
D |-2-2-2-2-2-2-2-2-2-2-2-2-2-2-2-2-5---4---5---4---5--4--2-------------|
A |-2-2-2-2-2-2-2-2-2-2-2-2-2-2-2-2-5---4---5---4---5--4--2-------------|
D |-0-0-0-0-0-0-0-0-0-0-0-0-0-0-0-0-3---2---3---2---3--2--0-------------|



************************************

| h  Hammer-on
| \  Slide down
| /  Slide up
| ... 
| .... 
| X  
| fbr 
| pm 

************************************

            
            
Suggest correction
Creating personal tab
Creating personal tab
You can edit any tab online and save it as your Personal.

You can edit, replace or remove any tab part or add personal notes – all changes will be seen only by you.

Personal tabs can be accessed anytime from any device, even offline.
Learn more »
comments
print report bad tab
3 comments total.
+1 reply
Mracton 10 Feb 28, 2006 02:50 PM

YES!!! thank you! this is the best SDRE so far!

If you can, make the tabs for the rest of diary. Or at least in circles, songs about an angel, and 47.

Thanks again, your awesome!! this tab is awesome!!

0 reply
JesusOfSbrbia 240 Nov 29, 2008 03:56 PM

Parts of this are incorrect, including some of the leads, and the chords for the chorus.

The verse is a little bit incomplete, but you're closer than I am. I can't figure out what he's doing for the hammer on/pull off thing on that Em chord.

0 reply
JesusOfSbrbia 240 Nov 29, 2008 04:18 PM

EDIT: Nevermind, I think you're right about the verse, he only does the on/off thing for that high G chord.

guest
You may want to rate the tab now too:
select rating
Wanna post a correction for this tab? Suggest correction