Oops, an error
Loading. Please wait.

Alone With You Tab

version 1
version 1

Whole song

Interactive

6,241 views 9 this week
no commentswrite comment
1 2 3 4 5
x 7
add to favorites
launch autoscroll
font size
0
reset
how to read this tab
guitar tuner
Autoscroll
slow
fast
+/-
esc
set tempo
stop
Help us to improve Ultimate-Guitar.com Take our survey!
×
Author
Difficulty
intermediate
-------------------------------------------------------------------------------
                             ALONE WITH YOU - Suunyboys
-------------------------------------------------------------------------------
Tabbed by: Tyler J
Email: full_metal_orange AT hotmail DOT com

Tuning: Standard

This is a fantastic song by Sunnyboys. This tab incorporates what the other one was 
Proper intro, chords and solos.

Intro:

E---------------------|
B---------------------|
D------2--------2-----|   (x3) then D chord a few times
G----2--------2-------|
A--0------0-3-----3---|
E---------------------|

Verse:

Am      C     D           G             Am     C  D  E
We can lock away the bad memories together,
Am         C            D    G   Am            C  D  E
Close the doors to the past forever.
F            G
Watching you touch,
F               G
We're past this much.

Chorus:

    Am          C   D     E
I'm alone with you toniiiight
    Am          C   D     E
I'm alone with you toniiiight
    Am          C   D     E
I'm alone with you toniiiight

Verse:

I can't always remember what I say,
I can't always take it having to pay
Watching you walk,
You know you're really attractive.

Chorus

Solo 1:

E---------------------------------------|
B---------------------------------------|
D---10-10-10-9-7--7---7---7-10-9-7-7b---|   (x2)
G---------------------------------------|
A---------------------------------------|
E---------------------------------------|

E------------------------------------------12-12----12----------------|
B----7------7---9-----9---10-------10---12-------12-----12----17\--17\|
D--6----6h7---8---8h9---9-----9h10------------------------------------|
G---------------------------------------------------------------------|
A---------------------------------------------------------------------|
E---------------------------------------------------------------------|

Verse:

I know it's har-ard when you have cried,
When the conversations terror, you have tied.
Making out you still don't know,
All I have is alcohol so let me go,

Chorus

Solo 2:

E--/13-13-13-12-10---10-13-12-10-10b---|
B--------------------------------------|
D--------------------------------------|  (x2)
G--------------------------------------|
A--------------------------------------|
E--------------------------------------|

E—-12\10--10--10\8—-8\7—-7\5--5--------|
B--------------------------------------|
D--------------------------------------|
G--------------------------------------|
A--------------------------------------|
E--------------------------------------|

Bridge: (Use chorus chords)

I'm alone with you (x4)

Chorus: (Normal chorus with normal chords adding the last line)

I'm alone with you toniiiiiiiight,

Solo 3 / Outro:

E------------------------------------------------|
B------------------------------------------------|
G--5------------------------5--7--7b----5--7b----|
D-----7--7----7----7--5--7-----------------------|
A------------------------------------------------|
E------------------------------------------------|

E--------------------------------------------------|
B--------------------------------------------------|
G--5--7--5--4--5-----------------------5--7br------|
D-----------------7--5-----------5--7--------------|
A-----------------------7------7-------------------|
E--------------------------------------------------|

E------------------------------------|
B--------------------------8b--------|
G--5--7b----9----9------9------------|
D------------------------------------|
A------------------------------------|
E------------------------------------|

E------------------------------------------------------|
B--10------10--9--------------8b----10------10--9------|
G-------------------9------9---------------------------|
D------------------------------------------------------|
A------------------------------------------------------|
E------------------------------------------------------|

E------------------------------------------------|
B------------8b----10---10--9-------------8b-----|
G--9------9---------------------9---9------------|
D------------------------------------------------|
A------------------------------------------------|
E------------------------------------------------|

E----------------------------8----8--8--8S--10--10----|
B--10------10--12------12-----------------------------|
G-----------------------------------------------------|
D-----------------------------------------------------|
A-----------------------------------------------------|
E-----------------------------------------------------|

E--10S--12--12----12S--15--15---15S--17--17--17------17----|
B----------------------------------------------------------|
G----------------------------------------------------------|
D----------------------------------------------------------|
A----------------------------------------------------------|
E----------------------------------------------------------|

E--17--17----17--17b------17pb---17pb------17pbr------15--15~--|
B--------------------------------------------------------------|
G--------------------------------------------------------------|
D--------------------------------------------------------------|
A--------------------------------------------------------------|
E--------------------------------------------------------------|

E---15~------15~------15~------15~------15~----|
B----------------------------------------------|
G----------------------------------------------|
D----------------------------------------------|
A----------------------------------------------|
E----------------------------------------------|

E--15~------15~------15~------12~----12~----12~----12~----|
B---------------------------------------------------------|
G---------------------------------------------------------|
D---------------------------------------------------------|
A---------------------------------------------------------|
E---------------------------------------------------------|

E--12~----12~----12S--10--10------10S--7--7----7S--5--5----|
B----------------------------------------------------------|
G----------------------------------------------------------|
D----------------------------------------------------------|
A----------------------------------------------------------|
E----------------------------------------------------------|

E---------------------------------5-------------------|
B-8S--5--5---5-----------------------8--5-------------|
G---------------7b----5-----7b-------------7--5--4----|
D---------------------------------------------------7-|
A-----------------------------------------------------|
E-----------------------------------------------------|

E------------------------------|
B------------------5b------5---|
G-------5-----7----------------|
D--7---------------------------|
A------------------------------|
E------------------------------|
Suggest correction
comments
print report bad tab
guest
You may want to rate the tab now too:
select rating
Wanna post a correction for this tab? Suggest correction