Oops, an error
Loading. Please wait.

Fairytale Gone Bad Tab

version 1
version 1

Whole song

57,153 views 18 this week
3 commentsread comments
1 2 3 4 5
x 14
add to favorites
launch autoscroll
font size
0
reset
how to read this tab
guitar tuner
Autoscroll
slow
fast
+/-
esc
set tempo
stop
Help us to improve Ultimate-Guitar.com Take our survey!
×
Author
Difficulty
novice
Intro:

(u can play it muted or only the E string open)


e----------------------------------------------------------------------------|
B----------------------------------------------------------------------------|
G----------------------------------------------------------------------------|
D--8-8-8-8-8-8--4-4-4-4-4-4--6-6-6-6-6-6-6-6-6-6-6-6-6--4-4-4-3-3-3-8-8-8----|
A--8-8-8-8-8-8--4-4-4-4-4-4--6-6-6-6-6-6-6-6-6-6-6-6-6--4-4-4-3-3-3-8-8-8----|
E--6-6-6-6-6-6--2-2-2-2-2-2--4-4-4-4-4-4-4-4-4-4-4-4-4--2-2-2-1-1-1-6-6-6----|


Pre Chorus:

e------------------------------|  3x
B------------------------------|
G-------------6-6--------------|
D--4-4--4-4-4-6-6-6-6-6-6-6----|
A--4-4--4-4-4-4-4-6-6-6-6-6----|
E--2-2--2-2-2-----4-4-4-4-4----|

4. time:

e-----------------------------|
B-----------------------------|
G-----------------------------|
D--4-4-4-4-4-4--6-6-6-6-6-6---|
A--4-4-4-4-4-4--6-6-6-6-6-6---|
E--2-2-2-2-2-2--4-4-4-4-4-4---|

Chorus:
(clean)

e--------------------------------------------------------------------------| 2x
B--------------------------------------------------------------------------|
G--------------------------------------------------------------------------|
D--8-8-8-8-8-8--4-4-4-4-4-4--6-6-6-6-6-6-6--3-3-3-3--4-4-4-4-4-4--6-6-6----|
A--8-8-8-8-8-8--4-4-4-4-4-4--6-6-6-6-6-6-6--3-3-3-3--4-4-4-4-4-4--6-6-6----|
E--6-6-6-6-6-6--2-2-2-2-2-2--4-4-4-4-4-4-4--1-1-1-1--2-2-2-2-2-2--4-4-4----|

Verse:
(clean, u can pick the chords


e-(6)----------(2)----------(4)------------------------(2)---(1)---(6)-------|
B-(6)----------(2)----------(4)------------------------(2)---(1)---(6)-------|
G-(7)----------(3)----------(5)------------------------(3)---(2)---(7)-------|
D--8-8-8-8-8-8--4-4-4-4-4-4--6-6-6-6-6-6-6-6-6-6-6-6-6--4-4-4-3-3-3-8-8-8----|
A--8-8-8-8-8-8--4-4-4-4-4-4--6-6-6-6-6-6-6-6-6-6-6-6-6--4-4-4-3-3-3-8-8-8----|
E--6-6-6-6-6-6--2-2-2-2-2-2--4-4-4-4-4-4-4-4-4-4-4-4-4--2-2-2-1-1-1-6-6-6----|

Pre Chorus:

e------------------------------|  3x
B------------------------------|
G-------------6-6--------------|
D--4-4--4-4-4-6-6-6-6-6-6-6----|
A--4-4--4-4-4-4-4-6-6-6-6-6----|
E--2-2--2-2-2-----4-4-4-4-4----|

4. time:

e-----------------------------|
B-----------------------------|
G-----------------------------|
D--4-4-4-4-4-4--6-6-6-6-6-6---|
A--4-4-4-4-4-4--6-6-6-6-6-6---|
E--2-2-2-2-2-2--4-4-4-4-4-4---|


Chorus:
(distortion)

e--------------------------------------------------------------------------| 4x
B--------------------------------------------------------------------------|
G--------------------------------------------------------------------------|
D--8-8-8-8-8-8--4-4-4-4-4-4--6-6-6-6-6-6-6--3-3-3-3--4-4-4-4-4-4--6-6-6----|
A--8-8-8-8-8-8--4-4-4-4-4-4--6-6-6-6-6-6-6--3-3-3-3--4-4-4-4-4-4--6-6-6----|
E--6-6-6-6-6-6--2-2-2-2-2-2--4-4-4-4-4-4-4--1-1-1-1--2-2-2-2-2-2--4-4-4----|


Ending:

E—-6---  let ring
B--6---|
G--7---|
D--8---|
A--8---|
E—-6---
Suggest correction
comments
print report bad tab
3 comments total.
0 reply
Skater901 81 Dec 11, 2006 03:03 AM

Not bad tab but could use a lot more work, such as showing the picking patterns used for the Verse and also giving an arrangement. This tab isn't very beginner-friendly. A legend would also help.

0 reply
guitaringsailor 51 Feb 14, 2007 11:13 AM

yeah I agree its not wrong, but it really needs more work

0 reply
Saftcheck 145 May 17, 2007 04:14 AM

I think it needs a correction! In my opinion the verse doesn't fit, i'd play it like this:
e----------------------------------------------------------------------------|
B----------------------------------------------------------------------------|
G----------------------------6-6-6-6-6-6-6-6-6-6-6-6-6-----------------------|
D--8-8-8-8-8-8--4-4-4-4-4-4--6-6-6-6-6-6-6-6-6-6-6-6-6--6-6-6-6-6-6-8-8-8----|
A--8-8-8-8-8-8--4-4-4-4-4-4--4-4-4-4-4-4-4-4-4-4-4-4-4--6-6-6-6-6-6-8-8-8----|
E--6-6-6-6-6-6--2-2-2-2-2-2-----------------------------4-4-4-3-3-3-6-6-6----|

guest
You may want to rate the tab now too:
select rating
Wanna post a correction for this tab? Suggest correction