Oops, an error
Loading. Please wait.
We have Chord Pro version of Fairytale Gone Bad.
It's the closest thing you can get to the original song and it has interactive parts. Check out the tab »
×
349 views 1 this week
no commentswrite comment
1 2 3 4 5
3 more votes to show rating
add to favorites
×
Save as Personal and add changes to this tab that will be seen only by you. Learn more ›
×
You can save this tab as Personal to edit and correct it or add notes. All changes will be seen only by you. Learn more »
launch autoscroll
font size
0
reset
how to read this tab
guitar tuner
edit
Autoscroll
slow
fast
+/-
esc
set tempo
stop
Author
Difficulty
This is a acoustic Version I interpreted a little bit but I think it sounds pretty decent.
Nevertheless I recommend listening to the original to figure out rhythm/tact schemes or
just do it your own way.

[Intro and Verse] (Second Verse is played the same way, but full Chords without Palm mute)

Chords:

    Am  Csus2  G   F
e|--0---3------3---1--|
B|--1---3------3---1--|
G|--2---5------4---2--|
D|--2---5------5---3--|
A|--0---3------5---3--|
E|-------------3---1--|

           (Am)                            (Csus2)
e|---------------------------------------------------------------------------|
B|---------------------------------------------------------------------------|
G|---------------------------------------------------------------------------|
D|---------------------------------------------------------------------------|
A|----------0-0-0-0-0-0-0-0-0-0-0-0-0-0-0-0-3-3-3-3-3-3-3-3-3-3-3-3-3-3-3-3--|
E|---------------------------------------------------------------------------|
This is the end ...                         Lady, ...
         PM|~~~~~~~~~~~~~~~~~~~~~~~~~~~~~~~~~~~~~~~~~~~~~~~~~~~~~~~~~~~~~~~~~

  (G)             (F)             (Am)
e|---------------------------------------------------------------------------|
B|---------------------------------------------------------------------------|
G|---------------------------------------------------------------------------|
D|---------------------------------------------------------------------------|
A|---------------------------------0-0-0-0-0-0-0-0-0-0-0-0-0-0-0-0-----------|
E|-3-3-3-3-3-3-3-3-1-1-1-1-1-1-1-1-------------------------------------------|
   We ain't ...    Fight ...      Tears ...
  ~~~~~~~~~~~~~~~~~~~~~~~~~~~~~~~~~~~~~~~~~~~~~~~~~~~~~~~~~~~~~~~~|

           (Am)                            (Csus2)
e|---------------------------------------------------------------------------|
B|---------------------------------------------------------------------------|
G|---------------------------------------------------------------------------|
D|--------------2-----2---2-----2-----2---2-----5-----5---5-----5-----5---5--|
A|----------0-0-0-0-0-0-0-0-0-0-0-0-0-0-0-0-3-3-3-3-3-3-3-3-3-3-3-3-3-3-3-3--|
E|---------------------------------------------------------------------------|
We got to a Point ...  
         PM|~~~~~~~~~~~~~~~~~~~~~~~~~~~~~~~~~~~~~~~~~~~~~~~~~~~~~~~~~~~~~~~~~

  (G)             (F)             (Am)
e|---------------------------------------------------------------------------|
B|---------------------------------------------------------------------------|
G|---------------------------------------------------------------------------|
D|-------------------------------------2-----2---2-----2-----2---2-----------|
A|-----5-----5---5-----3-----3---3-0-0-0-0-0-0-0-0-0-0-0-0-0-0-0-0-----------|
E|-3-3-3-3-3-3-3-3-1-1-1-1-1-1-1-1-------------------------------------------|
   I'm not more ...               walking ...
  ~~~~~~~~~~~~~~~~~~~~~~~~~~~~~~~~~~~~~~~~~~~~~~~~~~~~~~~~~~~~~~~~|
  
[Pre-Chorus]

  (F)             (Csus2)        3x (G)
e|---------------------------------|-----------------------------------------|
B|---------------------------------|-----------------------------------------|
G|---------------------------------|-----------------------------------------|
D|---------------------5-----5---5-|-----------------------------------------|
A|-----3-----3---3-3-3-3-3-3-3-3-3-|-----5-----5---5-5-----------------------|
E|-1-1-1-1-1-1-1-1-----------------|-3-3-3-3-3-3-3-3-3-----------------------|
           We can't ...              nothing on our ...
PM|~~~~~~~~~~~~~~~~~~~~~~~~~~~~~~~~~~~~~~~~~~~~~~~|  |let ring~~~~~~~~~~~~~~~|


[Chorus] (all further Chorus-schemes are played the same, but without PM and fully played Chords)

   Am                              Csus2
e|---------------------------------------------------------------------------|
B|-----1-----1---1-----1-----1---1-----3-----3---3-----3-----3---3-----------|
G|-----2-----2---2-----2-----2---2-----5-----5---5-----5-----5---5-----------|
D|-----2-----2---2-----2-----2---2-----5-----5---5-----5-----5---5-----------|
A|-0-0-0-0-0-0-0-0-0-0-0-0-0-0-0-0-3-3-3-3-3-3-3-3-3-3-3-3-3-3-3-3-----------|
E|---------------------------------------------------------------------------|
   Out of my mind ...              Out of the tears ...
   G                               F               G
e|---------------------------------------------------------------------------|
B|---------------------------------------------------------------------------|
G|-----4-----4---4-----4-----4---4-----2-----2---2-----4-----4---4-----------|
D|-----5-----5---5-----5-----5---5-----3-----3---3-----5-----5---5-----------|
A|-----5-----5---5-----5-----5---5-----3-----3---3-----5-----5---5-----------|
E|-3-3-3-3-3-3-3-3-3-3-3-3-3-3-3-3-1-1-1-1-1-1-1-1-3-3-3-3-3-3-3-3-----------|


[Outro]

F ------------------ G --------------------- Am (Repeat as long as the text goes)
  Tell ...          Fairytale ...      Gone bad ...


************************************

| ~   Palm Mute

************************************

            
            
Suggest correction
Creating personal tab
Creating personal tab
You can edit any tab online and save it as your Personal.

You can edit, replace or remove any tab part or add personal notes – all changes will be seen only by you.

Personal tabs can be accessed anytime from any device, even offline.
Learn more »
Give kudos to tab author, rate the tab!
1 2 3 4 5
comments
print report bad tab
guest
You may want to rate the tab now too:
select rating
Wanna post a correction for this tab? Suggest correction