Oops, an error
Loading. Please wait.

All The Old Things tab

571 views 12 this week
1 commentread comment
1 2 3 4 5
1 last vote to show rating
add to favorites
×
Save as Personal and add changes to this tab that will be seen only by you. Learn more ›
×
You can save this tab as Personal to edit and correct it or add notes. All changes will be seen only by you. Learn more »
launch autoscroll
font size
0
reset
how to read this tab
guitar tuner
edit
Autoscroll
slow
fast
+/-
esc
set tempo
stop
About this tab version
Minor formatting changes according to UG Tab Formatting Guide. Was this info helpful? Yes No
This song is basically all the original tabs transposed to the same key. I'm 99% sure this is accurate.
(Verses 1-22)

[My Own Worst Enemy]
e|------------------------------|-----------------------------------------------|
B|------------------------------|-----------------------------------------------|
G|--11/12--12-12-12-12-12-12-12-|-11/12--12-12-12-12----------------------------|
D|--11/12--12-12-12-12-12-12-12-|-11/12--12-12-12-12--12-10---------------------| x2
A|--9/10---10-10-10-10-10-10-10-|-9-/10--10-10-10-10--12-10---------------------|
D|------------------------------|---------------------12-10---------------------|

[Fat Lip]
e|------------------|-----------------------------------------------------------|
B|------------------|-----------------------------------------------------------|
G|------------7-7-7-|-5-5-------5-4-2-------------------------------------------|
D|--5-5-5p4h5-7-7-7-|-5-5-5p4h5-5-4-2-------------------------------------------| x2
A|--5-5-------5-5-5-|-3-3-------3-2-0-------------------------------------------|
D|--5-5-------------|-----------------------------------------------------------|

[Rock Show]
e|------------|-----------------------------------------------------------------|
B|------------|-----------------------------------------------------------------|
G|------------|-5-5-5-5-----7-7-7-7---------------------------------------------|
D|-5-5-5-5----|-5-5-5-5-x2--7-7-7-7-x2------------------------------------------| x2
A|-5-5-5-5-x4-|-3-3-3-3-----5-5-5-5---------------------------------------------|
D|-5-5-5-5----|-----------------------------------------------------------------|
PM................................

[I'm Just a Kid]
e|-------------|-----------------|-------------|---------------|----------------|
B|-------------|-----------------|-------------|---------------|----------------|
G|-------5-5-5-|-7-7-7-7-7-7-7-7-|-------5-5-5-|-7-7-7-5-5-5-5-|-------5-5-5-5--|
D|-5-5-5-5-5-5-|-7-7-7-7-7-7-7-7-|-5-5-5-5-5-5-|-7-7-7-5-5-5-5-|-7-7-7-5-5-5-5--|
A|-5-5-5-3-3-3-|-5-5-5-5-5-5-5-5-|-5-5-5-3-3-3-|-5-5-5-3-3-3-3-|-7-7-7-3-3-3-3--|
D|-5-5-5-------|-----------------|-5-5-5-------|---------------|-7-7-7----------|

e|----------------|-------------------------------------------------------------|
B|----------------|-------------------------------------------------------------|
G|--------7-7-7-7-|-------------------------------------------------------------|
D|5-5-5-5-7-7-7-7-|-2-2-2-2-2-2-2-2---------------------------------------------|
A|5-5-5-5-5-5-5-5-|-2-2-2-2-2-2-2-2---------------------------------------------|
D|5-5-5-5---------|-2-2-2-2-2-2-2-2---------------------------------------------|

[1985]
(Rhythm)
e|------------|------------|-----------------|----------------------------------|
B|------------|------------|-----------------|----------------------------------|
G|------------|------------|-----------------|-5-5-5-5-5-5-5--------------------|
D|-3-3-x-x----|-3-3-x-x----|-5-5-5-5-5-5-5-5-|-5-5-5-5-5-5-5-5------------------|
A|-3-3-x-x-x2-|-3-3-x-x-x2-|-5-5-5-5-5-5-5-5-|-3-3-3-3-3-3-3-5------------------|
D|-3-3-x-x----|-3-3-x-x----|-5-5-5-5-5-5-5-5-|---------------5------------------|

(Lead)
E|-----------------|--------------------|---------------------------------------|
B|-----------------|--------------------|---------------------------------------|
G|-11/13---9/11/13-|--9/11\9/11/13\11\9-|-9~------------------------------------|
D|-x--x----x-x--x--|--x-x--x--x--x-x--x-|-x~------------------------------------|
A|-9-/11---7/9-/11-|--7/9-\7/9-/11\9-\7-|-7~------------------------------------|
D|-----------------|--------------------|---------------------------------------|

[You're Gonna Go Far, Kid]
e|-----|-----|-----|------------------------------------------------------------|
B|-----|-----|-----|------------------------------------------------------------|
G|-5-5-|-----|-7-7-|------------------------------------------------------------|
D|-5-5-|-5-5-|-7-7-|-7-7--------------------------------------------------------|
A|-3-3-|-5-5-|-5-5-|-7-7--------------------------------------------------------|
D|-----|-5-5-|-----|-7-7--------------------------------------------------------|

[Honestly]
e|-----|-----|-----|------------------------------------------------------------|
B|-----|-----|-----|------------------------------------------------------------|
G|-5-5-|-----|-7-7-|------------------------------------------------------------|
D|-5-5-|-5-5-|-7-7-|-7-7--------------------------------------------------------|
A|-3-3-|-5-5-|-5-5-|-7-7--------------------------------------------------------|
D|-----|-5-5-|-----|-7-7--------------------------------------------------------|

[Dirty Little Secret]
e|--------|--------|--------|--------|------------|---------------|-------------|
B|--------|--------|--------|--------|------------|---------------|-------------|
G|--------|--------|-4--4-4-|-4--4-4-|------------|---------------|-------------|
D|-2--2-2-|-2--2-2-|-4--4-4-|-4--4-4-|-5-5-5-5----|-x2-7-7-7-7----|-x2----------|
A|-2--2-2-|-2--2-2-|-2--2-2-|-2--2-2-|-5-5-5-5-x2-|----7-7-7-7-x2-|-------------|
D|-2--2-2-|-2--2-2-|--------|--------|-5-5-5-5----|----7-7-7-7----|-------------|
                                       PM..................... 
[Sk8er Boi]
e|-----------------|-----------------|-----------------|-----------------|------|
B|-----------------|-----------------|-----------------|-----------------|------|
G|-7-7-7-7-7-7-7-7-|-----------------|-----------------|-----------------|------|
D|-7-7-7-7-7-7-7-7-|-7-7-7-7-7-7-7-7-|-5-5-5-5-5-5-5-5-|-4-4-4-4-4-4-4-4-|----5~|
A|-5-5-5-5-5-5-5-5-|-7-7-7-7-7-7-7-7-|-5-5-5-5-5-5-5-5-|-4-4-4-4-4-4-4-4-|-x2-5~|
D|-----------------|-7-7-7-7-7-7-7-7-|-5-5-5-5-5-5-5-5-|-4-4-4-4-4-4-4-4-|----5~|

[Everything is Alright]
e|----|----|----|---------------------------------------------------------------|
B|----|----|----|---------------------------------------------------------------|
G|-7~-|-4~-|----|---------------------------------------------------------------|
D|-7~-|-4~-|-2~-|-5~------------------------------------------------------------|
A|-5~-|-2~-|-2~-|-5~------------------------------------------------------------|
D|----|----|-2~-|-5~------------------------------------------------------------|

[My Friends Over You]
(Rhythm)
e|-------|--------|-------|--------|-------|--------|---------|-----------------|
B|-------|--------|-------|--------|-------|--------|---------|-----------------|
G|-7-7-7-|-7--7-7-|-------|--------|-7-7-7-|-7--7-7-|---------|-----------------|
D|-7-7-7-|-7--7-7-|-5-5-5-|-5--5-5-|-7-7-7-|-7--7-7-|-2-2-2-2-|-5-5-5-5---------|
A|-5-5-5-|-5--5-5-|-5-5-5-|-5--5-5-|-5-5-5-|-5--5-5-|-2-2-2-2-|-5-5-5-5---------|
D|-------|--------|-5-5-5-|-5--5-5-|-------|--------|-2-2-2-2-|-5-5-5-5---------|

(Lead)
E|-----------------|------------------------------------------------------------|
B|-5---5-7-5-----5-|-----5-7-5--------------------------------------------------|
G|---7-------7-7---|-7-7-------7-7-7--------------------------------------------|
D|-----------------|------------------------------------------------------------|
A|-----------------|------------------------------------------------------------|
D|-----------------|------------------------------------------------------------|

[Don't Call Me White]
e|-----------------|-----------------|-----------------|------------------------|
B|-----------------|-----------------|-----------------|------------------------|
G|-----------------|-----------------|-----------------|------------------------|
D|-2-2-2-2-2-2-2-2-|-5-5-5-5-5-5-5-5-|-0-0-0-0-0-0-0-0-|------------------------|
A|-2-2-2-2-2-2-2-2-|-5-5-5-5-5-5-5-5-|-0-0-0-0-0-0-0-0-|-x2---------------------|
D|-2-2-2-2-2-2-2-2-|-5-5-5-5-5-5-5-5-|-0-0-0-0-0-0-0-0-|------------------------|

[The Anthem]
e|-----------------|-----------------|------------------------------------------|
B|-----------------|-----------------|------------------------------------------|
G|-----------------|-----------------|------------------------------------------|
D|-2-2-2-2-2-2-2-2-|-5-5-5-5-5-5-5-5-|-0-0-0-0-0-0-0-0--------------------------|
A|-2-2-2-2-2-2-2-2-|-5-5-5-5-5-5-5-5-|-0-0-0-0-0-0-0-0--------------------------|
D|-2-2-2-2-2-2-2-2-|-5-5-5-5-5-5-5-5-|-0-0-0-0-0-0-0-0--------------------------|

e|-----------------|-----------------|-----------------|------------------------|
B|-----------------|-----------------|-----------------|------------------------|
G|-----------------|-----------------|-----------------|------------------------|
D|-2-2-2-2-2-2-2-2-|-5-5-5-5-5-5-5-5-|-7-7-7-7-7-7-7-7-|-7-7-7-7-7-7-7-7--------|
A|-2-2-2-2-2-2-2-2-|-5-5-5-5-5-5-5-5-|-7-7-7-7-7-7-7-7-|-7-7-7-7-7-7-7-7--------|
D|-2-2-2-2-2-2-2-2-|-5-5-5-5-5-5-5-5-|-7-7-7-7-7-7-7-7-|-7-7-7-7-7-7-7-7--------|
                                       PM..............................
[American Idiot]
e|-------------|--------------|-------------------------------------------------|
B|-------------|--------------|-------------------------------------------------|
G|-------------|--------------|-------------------------------------------------|
D|-0-0-0-7-7-7-|-5-5-5-12-7-5-|-x4----------------------------------------------|
A|-0-0-0-7-7-7-|-5-5-5-12-7-5-|-------------------------------------------------|
D|-0-0-0-7-7-7-|-5-5-5-12-7-5-|-------------------------------------------------|

[Misery Business]
e|---------|------------|------------|------------------------|-----------------|
B|---------|------------|------------|------------------------|-----------------|
G|-7-7-7-7-|----0-0-0-0-|----9-9-9-9-|----11-11-11-11-9-9-9-9-|-----------------|
D|-5-5-5-5-|----0-0-0-0-|----7-7-7-7-|----9--9--9--9--7-7-7-7-|-----------------|
A|-5-5-5-5-|-x2-0-0-0-0-|-x2-7-7-7-7-|-x2-9--9--9--9--7-7-7-7-|-x2--------------|
D|-5-5-5-5-|----0-0-0-0-|----7-7-7-7-|----9--9--9--9--7-7-7-7-|-----------------|

[Dear Maria Count Me In]
e|---------|---------|---------|---------|---------|---------|------------------|
B|---------|---------|---------|---------|---------|---------|------------------|
G|---------|---------|---------|---------|---------|---------|------------------|
D|-5-5-5-5-|-5-5-5-5-|-7-7-7-7-|-7-7-7-7-|-9-9-9-9-|-9-9-9-9-|-7-7-7------------|
A|-5-5-5-5-|-5-5-5-5-|-7-7-7-7-|-7-7-7-7-|-9-9-9-9-|-9-9-9-9-|-7-7-7------------|
D|-5-5-5-5-|-5-5-5-5-|-7-7-7-7-|-7-7-7-7-|-9-9-9-9-|-9-9-9-9-|-7-7-7------------|

[The Middle]
e|------------------------------------------------------------------------------|
B|------------------------------------------------------------------------------|
G|------------------------------------------------------------------------------|
D|-0~---5~---12/----------------------------------------------------------------|
A|-0~---5~---12/----------------------------------------------------------------|
D|-0~---5~---12/----------------------------------------------------------------|

[Sugar We're Goin Down]
e|----|----|-----|---------|------------|------------|------------|-------------|
B|----|----|-----|---------|------------|------------|------------|-------------|
G|----|----|-----|---------|------------|------------|------------|-------------|
D|-0~-|-5~-|-5-5-|-x-x-x-x-|-0-0-0-0----|-0-0-0-0----|-5-5-5-5----|-5-5-5-5-----|
A|-0~-|-5~-|-5-5-|-x-x-x-x-|-0-0-0-0-x2-|-0-0-0-0-x2-|-5-5-5-5-x2-|-5-5-5-5-x2--|
D|-0~-|-5~-|-5-5-|-x-x-x-x-|-0-0-0-0----|-0-0-0-0----|-5-5-5-5----|-5-5-5-5-----|

e|-------------------|------------|---------------------------------------------|
B|-------------------|------------|---------------------------------------------|
G|-------------------|------------|---------------------------------------------|
D|-7/9-9-9-9-9-9-9-9-|-9-9-9-9----|-5-5-5-5-------------------------------------|
A|-7/9-9-9-9-9-9-9-9-|-9-9-9-9-x2-|-5-5-5-5-x4----------------------------------|
D|-7/9-9-9-9-9-9-9-9-|-9-9-9-9----|-5-5-5-5-------------------------------------|

[Ocean Avenue]
e|-----------------|--------------------|-----------------------|-------------------|
B|-----------------|--------------------|-----------------------|-------------------|
G|---------7-7-7-7-|------------7-7-7-7-|------------7-7-7-7----|---------7-7-7-7---|
D|-0-0-0-0-7-7-7-7-|----5-5-5-5-7-7-7-7-|----9-9-9-9-7-7-7-7----|-5-5-5-5-7-7-7-7-x2|
A|-0-0-0-0-5-5-5-5-|-x2-5-5-5-5-5-5-5-5-|-x2-9-9-9-9-5-5-5-5-x2-|-5-5-5-5-5-5-5-5---|
D|-0-0-0-0---------|----5-5-5-5---------|----9-9-9-9------------|-5-5-5-5-----------|

[All The Small Things]
e|-----------|-----------|-----------------------|--------------|-----------|-------|
B|-----------|-----------|------Ending 1---------|-Ending 2-----|-----------|-------|
G|---7-7-7-7-|---7-7-7-7-|-[--9-9-9-9---7-7-7-7]-|--------------|-----------|-------|
D|-0-7-7-7-7-|-0-7-7-7-7-|-[7-9-9-9-9-5-7-7-7-7]-|[-7-7-7-7---]-|-5-5--5----|-0~----|
A|-0-5-5-5-5-|-0-5-5-5-5-|-[7-7-7-7-7-5-5-5-5-5]-|[-7-7-7-7-x2]-|-5-5--5-x4-|-0~----|
D|-0---------|-0---------|-[7---------5--------]-|[-7-7-7-7---]-|-5-5--5----|-0~----|
                                                          PM PM

************************************

| x   Dead note
| h   Hammer-on
| p   Pull-off
| r   Release
| /   Slide up
| \   Slide down
| ~   Sustain
| PM  Palm mute

************************************

            
            
Suggest correction
Creating personal tab
Creating personal tab
You can edit any tab online and save it as your Personal.

You can edit, replace or remove any tab part or add personal notes – all changes will be seen only by you.

Personal tabs can be accessed anytime from any device, even offline.
Learn more »
Give kudos to tab author, rate the tab!
1 2 3 4 5
comments
print report bad tab
1 comment total.
0 reply
picalowdo 185 Aug 28, 2017 06:41 AM

very good my dear sir

guest
You may want to rate the tab now too:
select rating
Wanna post a correction for this tab? Suggest correction