Oops, an error
Loading. Please wait.

My Jinji chords

970 views 102 this week
1 commentread comment
1 2 3 4 5
x 5
add to favorites
×
Save as Personal and add changes to this tab that will be seen only by you. Learn more ›
×
You can save this tab as Personal to edit and correct it or add notes. All changes will be seen only by you. Learn more »
launch autoscroll
font size
0
reset
transpose
0
reset
simplify chords
display chords
guitar tuner
edit
Autoscroll
slow
fast
+/-
esc
set tempo
stop
About this tab version
Chords plus some tabs for the chorus and outro parts. Was this info helpful? Yes No
Strumming
There is no strumming pattern for this song yet. and get +5 IQ
chord        (E-A-D-G-B-E)
[GM7]        (3-x-4-4-3-x) or (3-x-5-4-3-2)
[CM7]        (x-3-5-4-5-3)
[Ebm5b]      (x-6-7-8-7-x)
[Em7]        (12-x-12-12-12-x) or (x-7-9-7-8-7)
[Bm7]        (7-x-7-7-7-x) or (x-2-4-2-3-2)
[Am7]        (5-x-5-5-5-x) or (x-0-2-0-1-0)
[E]          (0-x-x-x-x-x)
[Dsus4]      (x-x-0-2-3-3) or (x-5-7-7-8-x)
[Cm7]        (x-3-5-3-4-3) or (8-x-8-8-8-x)

               GM7       CM7
Every time you lie in my place
  GM7       CM7   GM7       CM7
I do wanna say it to you my babe
  GM7           CM7        Ebm5b (x-6-7-8-7-x)
I won't be too late

Em7 Bm7 Am7   Bm7   Am7   Bm7   E (open E string only)

   Em7   Bm7        Am7
My jinji don’t you cry 
        Bm7           Am7
in this world out of time 
    Bm7           CM7
old time out of mind

   Em7   Bm7           Am7
My jinji please don’t cry
        Bm7          Am7
in this world out of time
     Bm7    CM7 
time out of mind
        Dsus4 
out of mind

               GM7       CM7 
Every time you lie in my place
  GM7       CM7   GM7        CM7
I do wanna say it to you my babe
  GM7               CM7
I don't want you to drain

Em7 Bm7 Am7   Bm7   Am7   Bm7   E (open E string only)

   Em7   Bm7        Am7
Oh jinji don’t you cry 
        Bm7           Am7
in this world out of time 
    Bm7           CM7
old time out of mind

   Em7   Bm7           Am7
My jinji please don’t lie
        Bm7          Am7
in this world out of time
     Bm7    CM7 
time out of mind
        Dsus4 
out of mind

               GM7       CM7
Every time you lie in my place
  GM7       CM7   GM7       CM7
I do wanna say it to you my babe
  GM7           CM7        
I won't be too late

Cm7                     Bm7
  Oh don’t leave me behind
                     Am7
without you I would cry 
              Bm7
because only you my babe
                      Am7
only you can conquer time
                  Cm7
only you can conquer time

              Bm7
Oh sometimes I
                     Am7
without you I would cry
              Bm7
because only you my babe
                      Am7
only you can conquer time

Cm7                       Bm7
    Oh don’t leave me behind
                     Am7
without you I would cry
              Bm7
because only you my babe
                      Am7
only you can conquer time
                  Cm7 
only you can conquer time

              Bm7
Oh sometimes I
                     Am7
without you I would cry
              Bm7
because only you my babe
                      Am7
only you can conquer time
                  Cm7
only you can conquer time

Bm7    Am7    Bm7    Am7   
Cm7   Bm7    Am7    Bm7    Am7 . . .

[TABS]
[Chorus]
E|---------10----------5---------3---------------------------------------------------------x--x-|
B|----12----------7---------5------------7---7h10p7-----5---5h8p5------7-------------------x--x-|
G|----12----------7---------5------------7--------------5--------------7-------------------x--x-|
D|----12----------7---------5------------7--------------5--------------7-------------------x--x-|
A|-----------------------------------------------------------------------------------------x--x-|
E|----12----------7---------5------------7--------------5--------------7----------0--------x--x-|
      Em7         Bm7       Am7          Bm7            Am7            Bm7        E 

E|---------10---------5----------3----------------------------------------------------3---------|
B|----12----------7---------5------------7---7h10p7-----5---5h8p5------7--------------5---------|
G|----12----------7---------5------------7--------------5--------------7--------------4---------|
D|----12----------7---------5------------7--------------5--------------7--------------5---------|
A|------------------------------------------------------------------------------------3---------|
E|----12----------7---------5------------7--------------5--------------7------------------------|
      Em7         Bm7       Am7          Bm7            Am7            Bm7            CM7 
  My  jin  ji    don’t you  cry  in this world   out of time      old  time  out of mind

E|---------10---------5----------3------------------------------------------------3-------------|
B|----12----------7---------5------------7---7h10p7-----5---5h8p5------7----------5-------------|
G|----12----------7---------5------------7--------------5--------------7----------4-------------|
D|----12----------7---------5------------7--------------5--------------7----------5-------------|
A|--------------------------------------------------------------------------------3-------------|
E|----12----------7---------5------------7--------------5--------------7------------------------|
      Em7         Bm7       Am7          Bm7            Am7            Bm7        CM7      
  My  jin  ji  please don’t cry  in this world   out of time      time out    of  mind

E|---------------------------------3----5----|
B|----------8------------3----5--------------|
G|----------7--------------------------------|
D|----------7--------------------------------|
A|----------5--------------------------------|
E|-------------------------------------------|
            Dsus4
  out  of mind           Eve- ry   time you...

[Epic Outro]
E|---------------8-------------------------------------------------------------------------------|
B|------------10---11-11-11-8--8-----------------------------------------------------------------|
G|-------8-11---------------------8--8------8----7--7-----7---7--7--9/11--9-7-9--9-9-------------|
D|7-8-10--------------------------------10----10-------9----9------------------------10--10-10-7-|
A|-----------------------------------------------------------------------------------------------|
E|-----------------------------------------------------------------------------------------------| 
                   Cm7                            Bm7                          Am7

E|------------------------------------------|
B|------------------------------------------|
G|--------7--7-7----------------------------|
D|-7-9-10--------9--9-9----------7-7--------|
A|----------------------9---9-10------7-7-7-|
E|------------------------------------------|
           Bm7                      Am7

E|---------------8----------------11--11------11----10--10------10----10--10--12/14-
B|------------10---11-11-11-8--8----------13-----13---------12-----12---------------
G|-------8-11-----------------------------------------------------------------------
D|7-8-10----------------------------------------------------------------------------
A|----------------------------------------------------------------------------------
E|----------------------------------------------------------------------------------
                   Cm7                                Bm7

E|-12-10-12--12-12--------------|
B|-----------------13--13-13----|
G|---------------------------10-|
D|------------------------------|
A|------------------------------|
E|------------------------------|
           Am7

E|-------------11----10--10-10-----------------------------------|
B|----------12----13-----------12--12-12------------10-10--------|
G|----10-13------------------------------11---11-12--------9-9-9-|
D|-11------------------------------------------------------------|
A|---------------------------------------------------------------|
E|---------------------------------------------------------------|
                     Bm7                                Am7

E|---------------8-------------------------------------------------------------------------------|
B|------------10---11-11-11-8--8-----------------------------------------------------------------|
G|-------8-11---------------------8--8------8----7--7-----7---7--7--9/11--9-7-9--9-9-------------|
D|7-8-10--------------------------------10----10-------9----9------------------------10--10-10-7-|
A|-----------------------------------------------------------------------------------------------|
E|-----------------------------------------------------------------------------------------------|
                   Cm7                            Bm7                          Am7

E|-------------------------------------------------|
B|-------------------------------------------------|
G|----------8----7--7-7----------------------------|
D|--------9---10--------9--9-9----------7-7--------|
A|---8-11----------------------9---9-10------7-7-7-|
E|-9-----------------------------------------------|
                 Bm7                      Am7

************************************

| x  Dead note
| h  Hammer-on
| p  Pull-off
| /  Slide up

************************************

            
            
Suggest correction
Creating personal tab
Creating personal tab
You can edit any tab online and save it as your Personal.

You can edit, replace or remove any tab part or add personal notes – all changes will be seen only by you.

Personal tabs can be accessed anytime from any device, even offline.
Learn more »
comments
print report bad tab
1 comment total.
0 reply
sirrubyddam 10 Jul 26, 2017 03:04 AM

thank you so much!!

guest
You may want to rate the tab now too:
select rating
Wanna post a correction for this tab? Suggest correction