Oops, an error
Loading. Please wait.

Idiot Hear bass

675 views 3 this week
2 commentsread comments
1 2 3 4 5
2 more votes to show rating
add to favorites
×
Save as Personal and add changes to this tab that will be seen only by you. Learn more ›
×
You can save this tab as Personal to edit and correct it or add notes. All changes will be seen only by you. Learn more »
launch autoscroll
font size
0
reset
guitar tuner
edit
Autoscroll
slow
fast
+/-
esc
set tempo
stop
Author
Band: Sunset Rubdown
Song: Idiot Heart
Album: Dragonslayer
Tabbed By: Dave Sheehan (daveys14@hotmail.com)


PLEASE RATE THIS TAB :)


It's all tabbed out as the song moves along. Nothing too difficult, just get used to the 
and you're set.

====
1:12
====

G|------------------------------------------------------|
D|--------------------3-3--3-3--------------------------|
A|-----------3-3---3-3---------5-5--5-5-3-3--3-33-3-3-3-|
E|-5-5---5-5--------------------------------------------|


G|-------------------------------------------------------|
D|--------------------3-3--3-3---------------------------|
A|-----------3-3---3-3---------5-5--5-5-1-1--1-11-1--1-1-|
E|-5-5---5-5---------------------------------------------|

G|---------------------------------------------------------------------|
D|--------------------3-3--3-3-----------------------------------------|
A|-----------3-3---3-3---------5-5--5-5-3-3--3-33-3--3-33-3--3-33-3--3-|
E|-5-5---5-5-----------------------------------------------------------|

====
1:45
====

G|------------------------------------------------------------------|
D|---------3-3--3-3-------------------------------------------------|
A|-5-5--5-5--------3-3--3-3----------5-5--5-55-5--5-55-5--5-55-5--5-|
E|--------------------------3-3--3-3--------------------------------|

====
1:58
====

G|------------------------------------------------------|
D|--------------------3-3--3-3--------------------------|
A|-----------3-3---3-3---------5-5--5-5-3-3--3-33-3-3-3-|
E|-5-5---5-5--------------------------------------------|


G|-------------------------------------------------------|
D|--------------------3-3--3-3---------------------------|
A|-----------3-3---3-3---------5-5--5-5-1-1--1-11-1--1-1-|
E|-5-5---5-5---------------------------------------------|

G|---------------------------------------------------------------------|
D|--------------------3-3--3-3-----------------------------------------|
A|-----------3-3---3-3---------5-5--5-5-3-3--3-33-3--3-33-3--3-33-3--3-|
E|-5-5---5-5-----------------------------------------------------------|

====
2:30
====

G|------------------------------------------------------------------|
D|---------3-3--3-3-------------------------------------------------|
A|-5-5--5-5--------3-3--3-3----------5-5--5-55-5--5-55-5--5-55------|
E|--------------------------3-3--3-3--------------------------------|

BREAK FOR 7 BARS

=====================================================
2:52 "If I was a horse I would throw up the reins..."
=====================================================

G|----------------------------------------------------------------------------|
D|----------3--3--3--2--2--2--------------------------------------------------|
A|-1--1--1-------------------3--3--3------------------5--55-5-5-55-5-55555555-|
E|-----------------------------------1--1--1--5--5--5-------------------------|

========================
3:08 "So look at you go"
========================

G|------------------------------------------------------|
D|------------------------------------------------------|
A|----------33333333-88888888-55555555-3333333333333333-|
E|-55555555---------------------------------------------|

G|------------------------------------------------------|
D|------------------------------------------------------|
A|----------33333333-88888888-55555555-1111111111111111-|
E|-55555555---------------------------------------------|

G|----------------------------------------------------------------------|
D|----------------------------------------------------------------------|
A|----------33333333-88888888-55555555-33333333333333333333333333333333-|
E|-55555555-------------------------------------------------------------|

G|----------------------------------------------------------------------|
D|----------33333333----------------------------------------------------|
A|-55555555----------33333333----------55555555555555555555555555555555-|
E|----------------------------33333333----------------------------------|

===================================
3:51 - "And you know your heart..."
===================================

G|------------------------------------------------------|
D|--------------------3-3--3-3--------------------------|
A|-----------3-3---3-3---------5-5--5-5-3-3--3-33-3-3-3-|
E|-5-5---5-5--------------------------------------------|


G|-------------------------------------------------------|
D|--------------------3-3--3-3---------------------------|
A|-----------3-3---3-3---------5-5--5-5-1-1--1-11-1--1-1-|
E|-5-5---5-5---------------------------------------------|

G|---------------------------------------------------------------------|
D|--------------------3-3--3-3-----------------------------------------|
A|-----------3-3---3-3---------5-5--5-5-3-3--3-33-3--3-33-3--3-33-3--3-|
E|-5-5---5-5-----------------------------------------------------------|

====
4:23
====

G|---------------------------------------------------------------------|
D|---------3-3--3-3----------------------------------------------------|
A|-5-5--5-5--------3-3--3-3----------5-5--5-55-5--5-55-5--5-5-55555555-|
E|--------------------------3-3--3-3-----------------------------------|

==========================
4:35 "Just move around.."
==========================

G|-------------------------|
D|-------------------------|
A|-------------------------|
E|-1--1--1--1/5--5--5--5-\-| (keep repeating)


=====================================================
5:24 "I hope that you die in a decent pair of shoes
      You've got a lotta long walkin' to do"
=====================================================

G|---------------------------------|
D|---------------------------------|
A|---------------------------------|
E|-111111111111111/555555555555555-|

====
5:47
====

G|---------55555555-777777777-1010101010101010-12-10-12-10-12-10-12-10----------------|
D|-88888888------------------------------------------------------------12-10----------|
A|---------------------------------------------------------------------------88888888-|
E|------------------------------------------------------------------------------------|

FOR THE ABOVE BIT: I'm not quite sure that's all bass. I tabbed part of it to follow 
vocals so it's optional, but I like doing it!
Suggest correction
Creating personal tab
Creating personal tab
You can edit any tab online and save it as your Personal.

You can edit, replace or remove any tab part or add personal notes – all changes will be seen only by you.

Personal tabs can be accessed anytime from any device, even offline.
Learn more »
Give kudos to tab author, rate the tab!
1 2 3 4 5
comments
print report bad tab
2 comments total.
0 reply
corndunks 72 Oct 15, 2010 01:14 PM

Great job on these two Sunset Rubdown tabs, keep it up :)

In case you haven't noticed, however, this tab is mis-titled 'Idiot Hear'

0 reply
yevveh 1,082 Aug 01, 2012 03:16 AM

I know it's been years (totally haven't been checking this site) but thank you :)

I remember correctly putting it in as Idiot Heart, I don't know what happened. I'll see if I can edit it now.

guest
You may want to rate the tab now too:
select rating
Wanna post a correction for this tab? Suggest correction