Oops, an error
Loading. Please wait.

The Mending Of The Gown intro tab

version 2
version 2

Intro

5,290 views 3 this week
no commentswrite comment
1 2 3 4 5
x 3
add to favorites
×
Save as Personal and add changes to this tab that will be seen only by you. Learn more ›
×
You can save this tab as Personal to edit and correct it or add notes. All changes will be seen only by you. Learn more »
launch autoscroll
font size
0
reset
how to read this tab
guitar tuner
edit
Autoscroll
slow
fast
+/-
esc
set tempo
stop
Difficulty
intermediate
-------------------------------------------------------------------------------
                     The Mending of the Gown - Sunset Rubdown
-------------------------------------------------------------------------------
Tabbed by: Eric Kinder
Email: etkndr@gmail.com

Tuning: Standard EADGBe

e|14h16p14------------------------------------------|
B|--------16-14-------------------------------------|
G|-------------16-13-11h13p11-11h13p11--------------|
D|--------------------------------------------------|
A|------------------------------------9h11p9--------|
E|------------------------------------------11-9-7-4|


Variation (they play it like this once a few seconds before the singing begins):
e|14h16p14---------------------------------|
B|--------16-14-----7h9p7------------------|
G|-------------16-13-----8-6---------------|
D|--------------------------9-6-4h6p4------|
A|-----------------------------------6-4---|
E|--------------------------------------7-4|

Suggest correction
Creating personal tab
Creating personal tab
You can edit any tab online and save it as your Personal.

You can edit, replace or remove any tab part or add personal notes – all changes will be seen only by you.

Personal tabs can be accessed anytime from any device, even offline.
Learn more »
Give kudos to tab author, rate the tab!
1 2 3 4 5
comments
print report bad tab
guest
Wanna post a correction for this tab? Suggest correction