Oops, an error
Loading. Please wait.

You Go On Ahead Trumpet Trumpet Ii bass

2,400 views 1 this week
1 commentread comment
1 2 3 4 5
x 3
add to favorites
×
Save as Personal and add changes to this tab that will be seen only by you. Learn more ›
×
You can save this tab as Personal to edit and correct it or add notes. All changes will be seen only by you. Learn more »
launch autoscroll
font size
0
reset
guitar tuner
edit
Autoscroll
slow
fast
+/-
esc
set tempo
stop
Author
Difficulty
Band: Sunset Rubdown
Song: You Go On Ahead (Trumpet Trumpet II)
Album: Dragonslayer
Tabbed By: Dave Sheehan (daveys14@hotmail.com)

PLEASE rate this tab :)

-------
VERSE
-------

G|----------------------------------| x5
D|----------------------------------|
A|----------3--3-5--------5-------5-|
E|-0--0-0-3--------3---03---3--03---|

G|--------------------------------|
D|--------------------------------|
A|----------3--3-5--------5-------|
E|-0--0-0-3--------3---03---3-----|

G|----------------------------------| x2
D|----------------------------------|
A|----------3--3-5--------5-------5-|
E|-0--0-0-3--------3---03---3--03---|


G|----------------------------------| <- just a little variation!
D|----------------------------------|
A|-7--7-7---3--3-5--------5-------5-|
E|--------3--------3---03---3--03---|

G|----------------------------------| 
D|----------------------------------|
A|----------3--3-5--------5-------5-|
E|-0--0-0-3--------3---03---3--03---|


--------
BRIDGE
--------

G|------------------|
D|------------------|
A|-3333333333333333-|
E|------------------|

-------
VERSE
-------

G|----------------------------------| x4
D|----------------------------------|
A|----------3--3-5--------5-------5-|
E|-0--0-0-3--------3---03---3--03---|

-------
VERSE 2
-------


G|----------------------------|---------------------------------|
D|----------------------------|---------------------------------|
A|-------6~~~-----------------|-6~~~~~--------6~~~--------------|
E|--3~~~------66-55-66-88-----|----------3~~~------66-55-66-88--|

G|----------------|------------------|
D|----------------|------------------|
A|-6~~~------6~~~-|-3333333333333333-|
E|------3~~~------|------------------|

--------
VERSE 3
--------

BREAK FOR 2 BARS

G|-----------------|
D|-----------------|
A|-------5-------5-|
E|-3-3-3---3-3-3---|

G|----------------------------------| x3
D|----------------------------------|
A|----------3--3-5--------5-------5-|
E|-0--0-0-3--------3---03---3--03---|

BREAK FOR 16 BARS (until after the Journey guitar ;))

-----
2:57
-----

G|---------------------------------| x4
D|---------------------------------|
A|--------3----3-------------------|
E|-0---0----------3333333333333333-|

-----
3:22
-----

G|---------------------------------| x3
D|---------------------------------|
A|-333333333333333-----------------|
E|----------------3333333333333333-|


G|---------------------------------| 
D|---------------------------------|
A|-3333333333333333333333333333333-|
E|---------------------------------|


-------------
VERSE - 3:46
-------------

G|----------------------------------| x4
D|----------------------------------|
A|----------3--3-5--------5-------5-|
E|-0--0-0-3--------3---03---3--03---|



------------------------------------------
"There are two eyes in my head..." - 4:10
-----------------------------------------

G|---------------------------------| x3
D|---------------------------------|
A|-------6~~~-------------55556666-|
E|--3~~~------66-55-66-33----------|

"Add up... add up..."

G|--------------------------------------| x2
D|--------------------------------------|
A|-----------66666666-------------------|
E|--33333333----------66666666666666666-|

G|---------------------------------| x3
D|---------------------------------|
A|-------6~~~-------------55556666-|
E|--3~~~------66-55-66-33----------|

G|--------------------------------------| x2
D|--------------------------------------|
A|-----------66666666-------------------|
E|--33333333----------66666666666666666-|


--------------------
Vocals stop - 5:09
--------------------

G|---------------------------------------| x2
D|---------------------------------------|
A|-----------6~~~~~~~--------------------|
E|--3~~~~~~~----------6~~~~~~~~-6~~~~~~~~|


-------------------------------------------------------------
5:20 "... Reflections on the water..." (hold all these notes)
-------------------------------------------------------------

G|----------------------------------------------------------------|
D|----------------------------------------------------------------|
A|--------5---6---------------5----6----------------6-------------|
E|-6------------------6--------------------3-----------------6----|

            
            
Suggest correction
Creating personal tab
Creating personal tab
You can edit any tab online and save it as your Personal.

You can edit, replace or remove any tab part or add personal notes – all changes will be seen only by you.

Personal tabs can be accessed anytime from any device, even offline.
Learn more »
Give kudos to tab author, rate the tab!
1 2 3 4 5
comments
print report bad tab
1 comment total.
0 reply
CrazyMonk3y 10 Mar 20, 2012 06:54 AM

Sorry to say, but you got the verse wrong. It actually starts with what you think is the variation then alternates with what you thought was the entire verse. I you listen to it it will make way more sense. Other than that, I can't find any other problems. Good job.

guest
You may want to rate the tab now too:
select rating
Wanna post a correction for this tab? Suggest correction