Oops, an error
Loading. Please wait.

Run Away solo tab

5,748 views 1 this week
2 commentsread comments
1 2 3 4 5
x 4
add to favorites
×
Save as Personal and add changes to this tab that will be seen only by you. Learn more ›
×
You can save this tab as Personal to edit and correct it or add notes. All changes will be seen only by you. Learn more »
launch autoscroll
font size
0
reset
how to read this tab
guitar tuner
edit
Autoscroll
slow
fast
+/-
esc
set tempo
stop
Author
Difficulty
This is my first tab :) Moldovas song in Eurovision 2010. Originally is this solo 
played on saxophone by Sergey Stepanov. 
I tabbed two versions. It depends if you use youtube or spotify.


Spotify version:


|------------------------------------------------------------------------------------|
|--11-----11--11-11--9h11--11-------11--11-11--9h11--11----14--11--9-----------------|
|----------------------------------------------------------------------11---8-8-10h11|
|------------------------------------------------------------------------------------|
|------------------------------------------------------------------------------------|
|------------------------------------------------------------------------------------|

Youtube version:


|------------------------------------------------------------------------------------|
|--10-----10--10-10--8h10--10-------10--10-10--8h10--10----13--10--8-----------------|
|----------------------------------------------------------------------10---7-7--9h10|
|------------------------------------------------------------------------------------|
|------------------------------------------------------------------------------------|
|------------------------------------------------------------------------------------|

            
            
Suggest correction
Creating personal tab
Creating personal tab
You can edit any tab online and save it as your Personal.

You can edit, replace or remove any tab part or add personal notes – all changes will be seen only by you.

Personal tabs can be accessed anytime from any device, even offline.
Learn more »
comments
print report bad tab
2 comments total.
0 reply
Attew 10 Jul 06, 2010 05:15 AM

5* This one's epic.

0 reply
ZeoDyn 129 Jul 10, 2010 03:16 PM

I searched it - I found it - THANKS BRO

5* Attew is right

guest
You may want to rate the tab now too:
select rating
Wanna post a correction for this tab? Suggest correction