Oops, an error
Loading. Please wait.

No Me Dejes Bass Tab

8 views 1 this week
no commentswrite comment
1 2 3 4 5
3 more votes to show rating
add to favorites
launch autoscroll
font size
0
reset
guitar tuner
×
Best way to learn
"No Me Dejes"
Autoscroll
slow
fast
+/-
esc
set tempo
stop
me encanta esta cancion
en especial en el coro
no me dejes, no me dejes, vida mia
Intro
E|---6----|-4--4---|---4----|-----6---|---6----|-4--4---|---4----|-2-2-6-|
A|-6--6-6-|--66-6--|-4--4-4-|-6-6--8--|-6--6-6-|--66-6--|-4--4-4-|--4----|
D|--8--8--|------6-|--6--6--|--8----8-|--8--8--|------6-|--6--6--|-------|
G|--------|--------|--------|---------|--------|--------|--------|-------|

Que quieres
E|---------|-4--4---|---4----|-2-2-6----|
A|--6--6-6-|--66-6--|-4--4-4-|--4---8---|
D|---88-8--|------6-|--6--6--|-------8--|
G|---------|--------|--------|----------|

El dia esta
E|---------|-4--4---|---4----|-2-2-2----|
A|--6--6-6-|--66-6--|-4--4-4-|--4---4---|
D|---88-8--|------6-|--6--6--|-------4--|
G|---------|--------|--------|----------|

que quieres
E|--4--4---|--66----|--7-6---|-----66--|
A|---66-6--|-6--6-6-|-8---8--|-6-6-----|
D|-------6-|-----8--|------8-|--8------|
G|---------|--------|--------|---------|

No me dejes
E|------------|----|-4--4--|--------|-----|
A|------------|-6--|--4--4-|-4--2-1-|-8---|
D|--1-3-4-5-6-|--6-|-------|--4-----|--8--|
G|------------|----|-------|--------|-----|

No me dejes
E|------------|----|-4--4--|-------|-------|
A|------------|-6--|--4--4-|-4--4--|-44----|
D|--1-3-4-5-6-|--6-|-------|--4--4-|---44--|
G|------------|----|-------|-------|-------|

no me dejes
E|--4--4---|---6----|--7-6---|--66---|
A|---66-6--|-6--6-6-|-8---8--|-6--6--|
D|-------6-|--8--8--|------8-|-------|
G|---------|--------|--------|-------|

E|---6----|-4--4---|---4----|-----6---|---6----|-4--4---|---4----|-2-2-6-|
A|-6--6-6-|--66-6--|-4--4-4-|-6-6--8--|-6--6-6-|--66-6--|-4--4-4-|--4----|
D|--8--8--|------6-|--6--6--|--8----8-|--8--8--|------6-|--6--6--|-------|
G|--------|--------|--------|---------|--------|--------|--------|-------|

me como mi
E|----6----|-4--4---|---4----|-2---2----|
A|--6--6-6-|--66-6--|-4--4-4-|--44--4---|
D|---8--8--|------6-|--6--6--|-------4--|
G|---------|--------|--------|----------|

que quieres
E|--4--4---|--6-----|--7-6---|-----66--|
A|---66-6--|-6--6-6-|-8---8--|-6-6-----|
D|-------6-|-----8--|------8-|--8------|
G|---------|--------|--------|---------|

No me dejes
E|------------|----|-4--4--|--------|-----|
A|------------|-6--|--4--4-|-4--2-1-|-8---|
D|--1-3-4-5-6-|--6-|-------|--4-----|--8--|
G|------------|----|-------|--------|-----|

No me dejes
E|------------|----|-4--4--|-------|-------|
A|------------|-6--|--4--4-|-4--4--|-44----|
D|--1-3-4-5-6-|--6-|-------|--4--4-|---44--|
G|------------|----|-------|-------|-------|

no me dejes
E|--4--4---|---6----|--7-6---|--66---|
A|---66-6--|-6--6-6-|-8---8--|-6--6--|
D|-------6-|--8--8--|------8-|-------|
G|---------|--------|--------|-------|
                                               x6
E|--6---6----|---6----|-6---6-6-|---------6-|-7-6--|
A|---88--8-8-|-6--6-6-|--88--8--|-----------|------|
D|--------8--|--8--8--|---------|-1-3-4-6---|------|
G|-----------|--------|---------|-----------|------|

No me dejes
E|------------|----|-4--4--|--------|-----|
A|------------|-6--|--4--4-|-4--2-1-|-8---|
D|--1-3-4-5-6-|--6-|-------|--4-----|--8--|
G|------------|----|-------|--------|-----|

No me dejes
E|------------|----|-4--4--|-------|-------|
A|------------|-6--|--4--4-|-4--4--|-44----|
D|--1-3-4-5-6-|--6-|-------|--4--4-|---44--|
G|------------|----|-------|-------|-------|

no me dejes
E|--4--4---|---6----|--7-6---|------|
A|---66-6--|-6--6-6-|-8---8--|-6-6--|
D|-------6-|--8--8--|------8-|--8---|
G|---------|--------|--------|------|

E|--4-4-|-6---|---66---|
A|---6--|--8--|-6---6--|
D|------|---8-|--------|
G|------|-----|--------|

atte. miauricio gatolar
Suggest correction
Give kudos to tab author, rate the tab!
1 2 3 4 5
comments
print report bad tab
guest
You may want to rate the tab now too:
select rating
Wanna post a correction for this tab? Suggest correction