Oops, an error
Loading. Please wait.

Capital D tab

31 views 1 this week
no commentswrite comment
1 2 3 4 5
3 more votes to show rating
add to favorites
×
Save as Personal and add changes to this tab that will be seen only by you. Learn more ›
×
You can save this tab as Personal to edit and correct it or add notes. All changes will be seen only by you. Learn more »
launch autoscroll
font size
0
reset
how to read this tab
guitar tuner
edit
Autoscroll
slow
fast
+/-
esc
set tempo
stop
First attempt at a tab sounds very close.  Saw Super Bob for the first time with 
Breaking Benjamin this year
and they were amazing.  The energy was high and they were non stop rocking the whole 
time.  Even without their
bass player at the show I was at was super awesome.  Hope to try and create some more 
tabs for this band and
hope you enjoy one of my favorite songs by them.


[Intro]

D|--------------------------------------------------------------------------------------------------------|
A|--------------------------------------------------------------------------------------------------------|
F|--------------------------------------------------------------------------------------------------------|
C|-7----------------10----------------12----------------15------------------------------------------------|
G|-7----------------10----------------12----------------15------------------------------------------------|
C|-7----------------10----------------12----------------15------------------------------------------------|


[Chorus]

D|--------------------------------------------------------------------------------------------------------|
A|--------------------------------------------------------------------------------------------------------|
F|--------------------------------------------------------------------------------------------------------|
C|-7-7-------------------7-7-------------7-----7-7-------------------7-7--------7-------------------------|
G|-7-7--7-8-7----7-------7-7--7-8-7----7-------7-7--7-8-7----7-------7-7--7-7-8---------------------------|
C|-7-7--------10---8-----7-7--------10---------7-7--------10---8-----7-7----------------------------------|

D|--------------------------------------------------------------------------------------------------------|
A|--------------------------------------------------------------------------------------------------------|
F|--------------------------------------------------------------------------------------------------------|
C|-7-7-------------------7-7-------------7-----7-7-------------------7-7--------7-7-8--7--9--10--12-------|
G|-7-7--7-8-7----7-------7-7--7-8-7----7-------7-7--7-8-7----7-------7-7--7-7-8-----8--7--9--10--12-------|
C|-7-7--------10---8-----7-7--------10---------7-7--------10---8-----7-7---------------7--9--10--12-------|


[Verse]

D|--------------------------------------------------------------------------------------------------------|
A|--------------------------------------------------------------------------------------------------------|
F|--------------------------------------------------------------------------------------------------------|
C|-7-----------7-----------7-7-----------10-7-9-6-7-----------7-----------7-7-----------10-7-9-6-7--------|
G|-7-----------7-----------7-7-----------10-7-9-6-7-----------7-----------7-7-----------10-7-9-6-7--------|
C|-7-----------7-----------7-7-----------10-7-9-6-7-----------7-----------7-7-----------10-7-9-6-7--------|

D|--------------------------------------------------------------------------------------------------------|
A|--------------------------------------------------------------------------------------------------------|
F|--------------------------------------------------------------------------------------------------------|
C|-10----------------------12----------------------15-----------------------------------------------------|
G|-10----------------------12----------------------15-----------------------------------------------------|
C|-10----------------------12----------------------15-----------------------------------------------------|


[Chorus]

D|--------------------------------------------------------------------------------------------------------|
A|--------------------------------------------------------------------------------------------------------|
F|--------------------------------------------------------------------------------------------------------|
C|-7-7-------------------7-7-------------7-----7-7-------------------7-7--------7-------------------------|
G|-7-7--7-8-7----7-------7-7--7-8-7----7-------7-7--7-8-7----7-------7-7--7-7-8---------------------------|
C|-7-7--------10---8-----7-7--------10---------7-7--------10---8-----7-7----------------------------------|

D|--------------------------------------------------------------------------------------------------------|
A|--------------------------------------------------------------------------------------------------------|
F|--------------------------------------------------------------------------------------------------------|
C|-7-7-------------------7-7-------------7-----7-7-------------------7-7--------7-7-8--7--9--10--12-------|
G|-7-7--7-8-7----7-------7-7--7-8-7----7-------7-7--7-8-7----7-------7-7--7-7-8-----8--7--9--10--12-------|
C|-7-7--------10---8-----7-7--------10---------7-7--------10---8-----7-7---------------7--9--10--12-------|

[Verse]

D|--------------------------------------------------------------------------------------------------------|
A|--------------------------------------------------------------------------------------------------------|
F|--------------------------------------------------------------------------------------------------------|
C|-7-----------7-----------7-7-----------10-7-9-6-7-----------7-----------7-7-----------10-7-9-6-7--------|
G|-7-----------7-----------7-7-----------10-7-9-6-7-----------7-----------7-7-----------10-7-9-6-7--------|
C|-7-----------7-----------7-7-----------10-7-9-6-7-----------7-----------7-7-----------10-7-9-6-7--------|

D|--------------------------------------------------------------------------------------------------------|
A|--------------------------------------------------------------------------------------------------------|
F|--------------------------------------------------------------------------------------------------------|
C|-10----------------------12----------------------15-----------------------------------------------------|
G|-10----------------------12----------------------15-----------------------------------------------------|
C|-10----------------------12----------------------15-----------------------------------------------------|


[Chorus]

D|--------------------------------------------------------------------------------------------------------|
A|--------------------------------------------------------------------------------------------------------|
F|--------------------------------------------------------------------------------------------------------|
C|-7-7-------------------7-7-------------7-----7-7-------------------7-7--------7-------------------------|
G|-7-7--7-8-7----7-------7-7--7-8-7----7-------7-7--7-8-7----7-------7-7--7-7-8---------------------------|
C|-7-7--------10---8-----7-7--------10---------7-7--------10---8-----7-7----------------------------------|

D|--------------------------------------------------------------------------------------------------------|
A|--------------------------------------------------------------------------------------------------------|
F|--------------------------------------------------------------------------------------------------------|
C|-7-7-------------------7-7-------------7-----7-7-------------------7-7--------7-7-8--8-7-----10---------|
G|-7-7--7-8-7----7-------7-7--7-8-7----7-------7-7--7-8-7----7-------7-7--7-7-8-----8--8-7-----10---------|
C|-7-7--------10---8-----7-7--------10---------7-7--------10---8-----7-7------------8--8-7-----10---------|

[Bridge]

D|--------------------------------------------------------------------------------------------------------|
A|--------------------------------------------------------------------------------------------------------|
F|--------------------------------------------------------------------------------------------------------|
C|-8--8-7--------10--------------8--8-7--------10--------------8--8-7---------10--------------------------|
G|-8--8-7--------10--------------8--8-7--------10--------------8--8-7---------10--------------------------|
C|-8--8-7--------10--------------8--8-7--------10--------------8--8-7---------10--------------------------|


[Chorus]/[Outro]

D|--------------------------------------------------------------------------------------------------------|
A|--------------------------------------------------------------------------------------------------------|
F|--------------------------------------------------------------------------------------------------------|
C|-7-7-------------------7-7-------------------7-7-------------7-----7-7-------------------7-7--------7-7-|
G|-7-7--7-8-7----7-------7-7--7-8-7----7-------7-7--7-8-7----7-------7-7--7-8-7----7-------7-7--7-7-8-----|
C|-7-7--------10---8-----7-7--------10---8-----7-7---------10--------7-7--------10---8-----7-7------------|

D|--------------------------------------------------------------------------------------------------------|
A|--------------------------------------------------------------------------------------------------------|
F|--------------------------------------------------------------------------------------------------------|
C|-7-7-------------------7-7-------------7-----7-7----------------------10---7---9---6---7----------------|
G|-7-7--7-8-7----7-------7-7--7-8-7----7-------7-7--7-8-7----7----------10---7---9---6---7----------------|
C|-7-7--------10---8-----7-7--------10---------7-7--------10---8--------10---7---9---6---7----------------|

************************************

| x   Dead note
| g   Grace note
| (n) Ghost note
| h   Hammer-on
| p   Pull-off
| r   Release
| >   Accented note
| t   Tapping
| b   Bend
| br  Bend release
| pb  Pre-bend
| pbr Pre-bend release
| /   Slide up
| \   Slide down
| ~   Vibrato
| s   Slap
| P   Pop
| PM  Palm mute
| TR  Trill
| N   Tremolo

************************************

            
            
Suggest correction
Creating personal tab
Creating personal tab
You can edit any tab online and save it as your Personal.

You can edit, replace or remove any tab part or add personal notes – all changes will be seen only by you.

Personal tabs can be accessed anytime from any device, even offline.
Learn more »
Give kudos to tab author, rate the tab!
1 2 3 4 5
comments
print report bad tab
guest
You may want to rate the tab now too:
select rating
Wanna post a correction for this tab? Suggest correction