Oops, an error
Loading. Please wait.

Hollywood Tab

1 view 1 this week
no commentswrite comment
1 2 3 4 5
3 more votes to show rating
add to favorites
launch autoscroll
font size
0
reset
how to read this tab
guitar tuner
Autoscroll
slow
fast
+/-
esc
set tempo
stop
Help us to improve Ultimate-Guitar.com Take our survey!
×
Author
Difficulty
Tuning
intermediate
C G C F A D
[Verse]
D|-----------------------------------------------------------------------------------------------------------|
A|-----------------------------------------------------------------------------------------------------------|
F|-7~7~7~7~7~7~7~7~7~7~7~7~7~7~7~7~~~~~~----7~7~7~7~7~7~7~7~7~7~7~7~7~7~7~7~~~-------------------~~~---------|
C|-----------------------------------------------------------------------------------------------------------|
G|-----------------------------------------------------------------------------------------------------------|
C|-----------------------------------------------------------------------------------------------------------|

D|-----------------------------------------------------------------------------------------------------------|
A|-----------------------------------------------------------------------------------------------------------|
F|-7~7~7~7~7~7~7~7~7~7~7~7~7~7~7~7~7~7~7~7-7~7~-7---7-7-5--7---7-7--5--7---7-7--5\7--10-10-10-10-10-10-------|
C|----------------------------------------------x---x-x-x--x---x-x--x--x---x-x--x\x---x--x--x--x--x--x-------|
G|----------------------------------------------5---5-5-3--5---5-5--3--5---5-5--3\5---8--8--8--8--8--8-------|
C|-----------------------------------------------------------------------------------------------------------|

D|-----------------------------------------------------------------------------------------------------------|
A|-----------------------------------------------------------------------------------------------------------|
F|-7---7-7-5--7---7-7--5--7---7-7--5--7---7-6-5-4-3----------------------------------------------------------|
C|-x---x-x-x--x---x-x--x--x---x-x--x--x---x-x-x-x-x----------------------------------------------------------|
G|-5---5-5-3--5---5-5--3--5---5-5--3--5---5-4-3-2-1----------------------------------------------------------|
C|-----------------------------------------------------------------------------------------------------------|

[Chorus]
D|-----------------------------------------------------------------------------------------------------------|
A|----------------------------------------------------------------------------------9\13-----9\13-----9\13---|
F|-------------------------------------------------------------------------------7--------7--------7---------|
C|-0--0--0-----3-5-6-5----6-5-3-5-3-5-0---0--0--0-----3-5-6-5----6-5-3-6-5-3-0-------------------------------|
G|-0--0--0-----3-5-6-5----6-5-3-5-3-5-0---0--0--0-----3-5-6-5----6-5-3-6-5-3-0-------------------------------|
C|-0--0--0-----3-5-6-5----6-5-3-5-3-5-0---0--0--0-----3-5-6-5----6-5-3-6-5-3-0-------------------------------|

[Verse]
D|-----------------------------------------------------------------------------------------------------------|
A|-----------------------------------------------------------------------------------------------------------|
F|-7~7~7~7~7~7~7~7~7~7~7~7~7~7~7~7~7~7~7~7-7~7~-7---7-7-5--7---7-7--5--7---7-7--5\7--10-10-10-10-10-10-------|
C|----------------------------------------------x---x-x-x--x---x-x--x--x---x-x--x\x---x--x--x--x--x--x-------|
G|----------------------------------------------5---5-5-3--5---5-5--3--5---5-5--3\5---8--8--8--8--8--8-------|
C|-----------------------------------------------------------------------------------------------------------|

D|-----------------------------------------------------------------------------------------------------------|
A|-----------------------------------------------------------------------------------------------------------|
F|-7---7-7-5--7---7-7--5--7---7-7--5--7---7-6-5-4-3----------------------------------------------------------|
C|-x---x-x-x--x---x-x--x--x---x-x--x--x---x-x-x-x-x----------------------------------------------------------|
G|-5---5-5-3--5---5-5--3--5---5-5--3--5---5-4-3-2-1----------------------------------------------------------|
C|-----------------------------------------------------------------------------------------------------------|

[Chorus]
D|-----------------------------------------------------------------------------------------------------------|
A|-----------------------------------------------------------------------------------------------------------|
F|------------------------------------------------------------------------7-6-5-------7-6-5-------7-6-5------|
C|0--0--0---3-5-6-5---6-5-3-5-3-5-0---0--0--0----3-5-6-5---6-5-3-6-5-3-0--------7-6-5-------7-6-5-------7-6-5|
G|0--0--0---3-5-6-5---6-5-3-5-3-5-0---0--0--0----3-5-6-5---6-5-3-6-5-3-0-------------------------------------|
C|0--0--0---3-5-6-5---6-5-3-5-3-5-0---0--0--0----3-5-6-5---6-5-3-6-5-3-0-------------------------------------|

D|-----------------------------------------------------------------------------------------------------------|
A|-----------------------------------------------------------------------------------------------------------|
F|----------------7-6-5-------7-6-5-------7-6-5------------------------------------------7-------------------|
C|-3-3--5-5--6-6--------7-6-5-------7-6-5-------7-6-5---3-3--5-5--6-6--5-5-3-3-0----0------------------------|
G|-3-3--5-5--6-6----------------------------------------3-3--5-5--6-6--5-5-3-3-0-----------------------------|
C|-3-3--5-5--6-6----------------------------------------3-3--5-5--6-6--5-5-3-3-0-----------------------------|

[Bridge]
D|-----------------------------------------------------------------------------------------------------------|
A|-----------------------------------------------------------------------------------------------------------|
F|-----------------------------------------------------------------------------------------------------------|
C|-0---33-55-33--0---33-55-33--0---33-55-33---10-10-10-10-10-10-10-\-15--------------------------------------|
G|-0-5-33-55-33--0-5-33-55-33--0-5-33-55-33---10-10-10-10-10-10-10-\-15--------------------------------------|
C|-0-0-33-55-33--0-0-33-55-33--0-0-33-55-33---10-10-10-10-10-10-10-\-15--------------------------------------|

D|-----------------------------------------------------------------------------------------------------------|
A|-----------------------------------------------------------------------------------------------------------|
F|-----------------------------------------------------------------------------------------------------------|
C|-0---33-55-33--0---33-55-33--0---33-55-33---10-10-10-10-10-10-10-\-15--------------------------------------|
G|-0-5-33-55-33--0-5-33-55-33--0-5-33-55-33---10-10-10-10-10-10-10-\-15--------------------------------------|
C|-0-0-33-55-33--0-0-33-55-33--0-0-33-55-33---10-10-10-10-10-10-10-\-15--------------------------------------|

D|-----------------------------------------------------------------------------------------------------------|
A|-----------------------------------------------------------------------------------------------------------|
F|-----------------------------------------------------------------------------------------------------------|
C|-0---33-55-33--0---33-55-33--0---33-55-33---10-10-10-10-10-10-10-\-15--------------------------------------|
G|-0-5-33-55-33--0-5-33-55-33--0-5-33-55-33---10-10-10-10-10-10-10-\-15--------------------------------------|
C|-0-0-33-55-33--0-0-33-55-33--0-0-33-55-33---10-10-10-10-10-10-10-\-15--------------------------------------|

D|-----------------------------------------------------------------------------------------------------------|
A|-----------------------------------------------------------------------------------------------------------|
F|----------------------------------------------------------------------------------7-6-5-4-3----------------|
C|-0---33-55-33--0---33-55-33--0---33-55-33---10-10-10-10-10-10-10-\-15----0--------x-x-x-x-x----------------|
G|-0-5-33-55-33--0-5-33-55-33--0-5-33-55-33---10-10-10-10-10-10-10-\-15----0--------5-4-3-2-1----------------|
C|-0-0-33-55-33--0-0-33-55-33--0-0-33-55-33---10-10-10-10-10-10-10-\-15----0---------------------------------|

[Outro]
D|-----------------------------------------------------------------------------------------------------------|
A|-----------------------------------------------------------------------------------------------------------|
F|------------------------------------------------------------------------7-6-5-------7-6-5-------7-6-5------|
C|0--0--0---3-5-6-5---6-5-3-5-3-5-0---0--0--0----3-5-6-5---6-5-3-6-5-3-0--------7-6-5-------7-6-5-------7-6-5|
G|0--0--0---3-5-6-5---6-5-3-5-3-5-0---0--0--0----3-5-6-5---6-5-3-6-5-3-0-------------------------------------|
C|0--0--0---3-5-6-5---6-5-3-5-3-5-0---0--0--0----3-5-6-5---6-5-3-6-5-3-0-------------------------------------|

D|-----------------------------------------------------------------------------------------------------------|
A|-----------------------------------------------------------------------------------------------------------|
F|---------------7-6-5-------7-6-5-------7-6-5-----------------------------7-6-5-------7-6-5-------7-6-5-----|
C|3-3--5-5--6-6--------7-6-5-------7-6-5-------7-6-5--3-3--5-5--6-6--5-5--------7-6-5-------7-6-5-------7-6-5|
G|3-3--5-5--6-6---------------------------------------3-3--5-5--6-6--5-5-------------------------------------|
C|3-3--5-5--6-6---------------------------------------3-3--5-5--6-6--5-5-------------------------------------|

D|-----------------------------------------------------------------------------------------------------------|
A|-----------------------------------------------------------------------------------------------------------|
F|---------------7-6-5-------7-6-5-------7-6-5---------------------------------------------------------------|
C|3-3--5-5--6-6--------7-6-5-------7-6-5-------7-6-5--33-5--33-5--33-5--6--5--3--0---------------------------|
G|3-3--5-5--6-6---------------------------------------33-5--33-5--33-5--6--5--3--0---------------------------|
C|3-3--5-5--6-6---------------------------------------33-5--33-5--33-5--6--5--3--0---------------------------|

************************************

| ~  Vibrato
| \  Slide down
| x  Dead note

************************************
Suggest correction
Give kudos to tab author, rate the tab!
1 2 3 4 5
comments
print report bad tab
guest
You may want to rate the tab now too:
select rating
Wanna post a correction for this tab? Suggest correction