Oops, an error
Loading. Please wait.

Bonamana Tab

16,681 views 1 this week
no commentswrite comment
1 2 3 4 5
2 more votes to show rating
add to favorites
launch autoscroll
font size
0
reset
how to read this tab
guitar tuner
Autoscroll
slow
fast
+/-
esc
set tempo
stop
Help us to improve Ultimate-Guitar.com Take our survey!
×
Author
Difficulty
Tuning
novice
D A D G B E
Artist: Super Junior
Song: Bonamana
Album: Bonamana

Tuning: Drop D

Intro
e|--------------------------------------------------------------|
B|--------------------------------------------------------------|
G|--------------------------------------------------------------|
D|--------------------------------------------------------------|
A|--------------------------------------------------------------|
D|-2--2-0--2---2--2-0--2---2--2-0--2---5--5-55-5----------------|

e|--------------------------------------------------------------|
B|--------------------------------------------------------------|
G|--------------------------------------------------------------|
D|--------------------------------------------------------------|
A|-------------------------------------2--2-22-2----------------|
D|-2--2-0--2---2--2-0--2---2--2-0--2----------------------------| x2

e|--------------------------------------------------------------|
B|--------------------------------------------------------------|
G|--------------------------------------------------------------|
D|-2--2-0--2---2--2-0--2---2--2-0--2---5--5-55-5----------------|
A|-2--2-0--2---2--2-0--2---2--2-0--2---5--5-55-5----------------|
D|-2--2-0--2---2--2-0--2---2--2-0--2---5--5-55-5----------------|

e|--------------------------------------------------------------|
B|--------------------------------------------------------------|
G|-------------------------------------4--4-44-4----------------|
D|-2--2-0--2---2--2-0--2---2--2-0--2---4--4-44-4----------------|
A|-2--2-0--2---2--2-0--2---2--2-0--2---2--2-22-2----------------|
D|-2--2-0--2---2--2-0--2---2--2-0--2----------------------------| x2

Verse
e|----------------------------------|
B|----------------------------------|
G|----------------------------------|
D|--2--2--2-2--2--2-2--2--2---2-2---|
A|--2--2--2-2--2--2-2--2--2---2-2---|
D|--2--2--2-2--2--2-2--2--2---2-2---|

e|----------------------------------|
B|----------------------------------|
G|----------------------------------|
D|--2--2--2-2--2--2-2--2--2---2-2---|
A|--2--2--2-2--2--2-2--2--2---2-2---|
D|--2--2--2-2--2--2-2--2--2---2-2---| 

e|----------------------------------|
B|----------------------------------|
G|----------------------------------|
D|--0--0--0-0--0--0-0--0--0---0-0---|
A|--0--0--0-0--0--0-0--0--0---0-0---|
D|--0--0--0-0--0--0-0--0--0---0-0---| 

e|----------------------------------|
B|----------------------------------|
G|----------------------------------|
D|--2--2--2-2--2--2-2--2--2---2-2---|
A|--2--2--2-2--2--2-2--2--2---2-2---|
D|--2--2--2-2--2--2-2--2--2---2-2---| x2

Prechorus
e|----------------------------------|
B|----------------------------------|
G|----------------------------------|
D|--2--2--2-2--2--2-2--2--2---2-2---|
A|--2--2--2-2--2--2-2--2--2---2-2---|
D|--2--2--2-2--2--2-2--2--2---2-2---|

e|----------------------------------|
B|----------------------------------|
G|----------------------------------|
D|--2--2--2-2--2--2-2--2--2---2-2---|
A|--2--2--2-2--2--2-2--2--2---2-2---|
D|--2--2--2-2--2--2-2--2--2---2-2---| 

e|----------------------------------|
B|----------------------------------|
G|----------------------------------|
D|--2--2--2-2--2--2-2--2--2---2-2---|
A|--2--2--2-2--2--2-2--2--2---2-2---|
D|--2--2--2-2--2--2-2--2--2---2-2---|

e|--------------|
B|--------------|
G|--4--4--4-----|
D|--4--4--4-----|
A|--2--2--2-----|
D|--------------| 

Chorus
e|--------------------------------------------------------------|
B|--------------------------------------------------------------|
G|--------------------------------------------------------------|
D|-2-2-2--2-2-2--2-2-2----0-0-0-0-------------------------------|
A|-2-2-2--2-2-2--2-2-2----0-0-0-0-------------------------------|
D|-2-2-2--2-2-2--2-2-2----0-0-0-0-------------------------------|

e|--------------------------------------------------------------|
B|--------------------------------------------------------------|
G|--------------------------------------------------------------|
D|-2-2-2--2-2-2--2-2-2----5-5-5-5-------------------------------|
A|-2-2-2--2-2-2--2-2-2----5-5-5-5-------------------------------|
D|-2-2-2--2-2-2--2-2-2----5-5-5-5-------------------------------|

e|--------------------------------------------------------------|
B|--------------------------------------------------------------|
G|--------------------------------------------------------------|
D|-2-2-2--2-2-2--2-2-2----0-0-0-0-------------------------------|
A|-2-2-2--2-2-2--2-2-2----0-0-0-0-------------------------------|
D|-2-2-2--2-2-2--2-2-2----0-0-0-0-------------------------------|

e|--------------------------------------------------------------|
B|--------------------------------------------------------------|
G|--------------------------------------------------------------|
D|-2-2-2--2-2-2--2-2-2--2-2-2-2-2-------------------------------|
A|-2-2-2--2-2-2--2-2-2--2-2-2-2-2-------------------------------|
D|-2-2-2--2-2-2--2-2-2--2-2-2-2-2-------------------------------|

Postchorus
e|--------------------------------------------------------------|
B|--------------------------------------------------------------|
G|--------------------------------------------------------------|
D|-2--2-0--2---2--2-0--2---2--2-0--2---5--5-55-5----------------|
A|-2--2-0--2---2--2-0--2---2--2-0--2---5--5-55-5----------------|
D|-2--2-0--2---2--2-0--2---2--2-0--2---5--5-55-5----------------|

e|--------------------------------------------------------------|
B|--------------------------------------------------------------|
G|-------------------------------------4--4-44-4----------------|
D|-2--2-0--2---2--2-0--2---2--2-0--2---4--4-44-4----------------|
A|-2--2-0--2---2--2-0--2---2--2-0--2---2--2-22-2----------------|
D|-2--2-0--2---2--2-0--2---2--2-0--2----------------------------| 

e|--------------------------------------------------------------|
B|--------------------------------------------------------------|
G|--------------------------------------------------------------|
D|-2--2-0--2---2--2-0--2---2--2-0--2---5--5-55-5----------------|
A|-2--2-0--2---2--2-0--2---2--2-0--2---5--5-55-5----------------|
D|-2--2-0--2---2--2-0--2---2--2-0--2---5--5-55-5----------------|

e|--------------------------------------------------------------|
B|--------------------------------------------------------------|
G|--------------------------------------------------------------|
D|-2--2-0--2---2--2-0--2---2--2-0--2----------------------------|
A|-2--2-0--2---2--2-0--2---2--2-0--2----------------------------|
D|-2--2-0--2---2--2-0--2---2--2-0--2----------------------------| 

Verse
e|----------------------------------|
B|----------------------------------|
G|----------------------------------|
D|--2--2--2-2--2--2-2--2--2---2-2---|
A|--2--2--2-2--2--2-2--2--2---2-2---|
D|--2--2--2-2--2--2-2--2--2---2-2---|

e|----------------------------------|
B|----------------------------------|
G|----------------------------------|
D|--2--2--2-2--2--2-2--2--2---2-2---|
A|--2--2--2-2--2--2-2--2--2---2-2---|
D|--2--2--2-2--2--2-2--2--2---2-2---| 

e|----------------------------------|
B|----------------------------------|
G|----------------------------------|
D|--0--0--0-0--0--0-0--0--0---0-0---|
A|--0--0--0-0--0--0-0--0--0---0-0---|
D|--0--0--0-0--0--0-0--0--0---0-0---| 

e|----------------------------------|
B|----------------------------------|
G|----------------------------------|
D|--2--2--2-2--2--2-2--2--2---2-2---|
A|--2--2--2-2--2--2-2--2--2---2-2---|
D|--2--2--2-2--2--2-2--2--2---2-2---| x2

Prechorus
e|----------------------------------|
B|----------------------------------|
G|----------------------------------|
D|--2--2--2-2--2--2-2--2--2---2-2---|
A|--2--2--2-2--2--2-2--2--2---2-2---|
D|--2--2--2-2--2--2-2--2--2---2-2---|

e|----------------------------------|
B|----------------------------------|
G|----------------------------------|
D|--2--2--2-2--2--2-2--2--2---2-2---|
A|--2--2--2-2--2--2-2--2--2---2-2---|
D|--2--2--2-2--2--2-2--2--2---2-2---| 

e|----------------------------------|
B|----------------------------------|
G|----------------------------------|
D|--2--2--2-2--2--2-2--2--2---2-2---|
A|--2--2--2-2--2--2-2--2--2---2-2---|
D|--2--2--2-2--2--2-2--2--2---2-2---|

e|--------------|
B|--------------|
G|--4--4--4-----|
D|--4--4--4-----|
A|--2--2--2-----|
D|--------------| 

Chorus
e|--------------------------------------------------------------|
B|--------------------------------------------------------------|
G|--------------------------------------------------------------|
D|-2-2-2--2-2-2--2-2-2----0-0-0-0-------------------------------|
A|-2-2-2--2-2-2--2-2-2----0-0-0-0-------------------------------|
D|-2-2-2--2-2-2--2-2-2----0-0-0-0-------------------------------|

e|--------------------------------------------------------------|
B|--------------------------------------------------------------|
G|--------------------------------------------------------------|
D|-2-2-2--2-2-2--2-2-2----5-5-5-5-------------------------------|
A|-2-2-2--2-2-2--2-2-2----5-5-5-5-------------------------------|
D|-2-2-2--2-2-2--2-2-2----5-5-5-5-------------------------------|

e|--------------------------------------------------------------|
B|--------------------------------------------------------------|
G|--------------------------------------------------------------|
D|-2-2-2--2-2-2--2-2-2----0-0-0-0-------------------------------|
A|-2-2-2--2-2-2--2-2-2----0-0-0-0-------------------------------|
D|-2-2-2--2-2-2--2-2-2----0-0-0-0-------------------------------|

e|--------------------------------------------------------------|
B|--------------------------------------------------------------|
G|--------------------------------------------------------------|
D|-2-2-2--2-2-2--2-2-2--2-2-2-2-2-------------------------------|
A|-2-2-2--2-2-2--2-2-2--2-2-2-2-2-------------------------------|
D|-2-2-2--2-2-2--2-2-2--2-2-2-2-2-------------------------------|

Postchorus
e|--------------------------------------------------------------|
B|--------------------------------------------------------------|
G|--------------------------------------------------------------|
D|-2--2-0--2---2--2-0--2---2--2-0--2---5--5-55-5----------------|
A|-2--2-0--2---2--2-0--2---2--2-0--2---5--5-55-5----------------|
D|-2--2-0--2---2--2-0--2---2--2-0--2---5--5-55-5----------------|

e|--------------------------------------------------------------|
B|--------------------------------------------------------------|
G|-------------------------------------4--4-44-4----------------|
D|-2--2-0--2---2--2-0--2---2--2-0--2---4--4-44-4----------------|
A|-2--2-0--2---2--2-0--2---2--2-0--2---2--2-22-2----------------|
D|-2--2-0--2---2--2-0--2---2--2-0--2----------------------------| x2

e|--------------|
B|--------------|
G|--4--4--4--4--|
D|--4--4--4--4--|
A|--2--2--2--2--|
D|--------------|

Bridge
e|------------------------------------|
B|------------------------------------|
G|--5-5-5-5-5-5-5-5--7-7-7-7-7-7-7-7--|
D|--5-5-5-5-5-5-5-5--7-7-7-7-7-7-7-7--|
A|--3-3-3-3-3-3-3-3--5-5-5-5-5-5-5-5--|
D|------------------------------------| X4

e|------------------------------------|
B|------------------------------------|
G|--5-5-5-5-5-5-5-5--7-7-7-7-9-9-9-9--|
D|--5-5-5-5-5-5-5-5--7-7-7-7-9-9-9-9--|
A|--3-3-3-3-3-3-3-3--5-5-5-5-7-7-7-7--|
D|------------------------------------| 

e|------------------------------------|
B|------------------------------------|
G|--5-5-5-5-5-5-5-5--7-7-7-7-7-7-7-7--|
D|--5-5-5-5-5-5-5-5--7-7-7-7-7-7-7-7--|
A|--3-3-3-3-3-3-3-3--5-5-5-5-5-5-5-5--|
D|------------------------------------| X3

e|------------------------------------|
B|------------------------------------|
G|--5-5-5-5-5-5-5-5--7-7-7-7-7-7-7-7--|
D|--5-5-5-5-5-5-5-5--7-7-7-7-7-7-7-7--|
A|--3-3-3-3-3-3-3-3--5-5-5-5-5-5-5-5--|
D|------------------------------------| X2

e|---------------------|
B|---------------------|
G|--5-5-5-5-4-4-4-4-3--|
D|--5-5-5-5-4-4-4-4-3--|
A|--3-3-3-3-2-2-2-2-1--|
D|---------------------| 

e|------------------------------------|
B|------------------------------------|
G|--5-5-5-5-5-5-5-5--7-7-7-7-9-9-9----|
D|--5-5-5-5-5-5-5-5--7-7-7-7-9-9-9----|
A|--3-3-3-3-3-3-3-3--5-5-5-5-7-7-7----|
D|------------------------------------| 

Chorus
e|--------------------------------------------------------------|
B|--------------------------------------------------------------|
G|--------------------------------------------------------------|
D|-2-2-2--2-2-2--2-2-2----0-0-0-0-------------------------------|
A|-2-2-2--2-2-2--2-2-2----0-0-0-0-------------------------------|
D|-2-2-2--2-2-2--2-2-2----0-0-0-0-------------------------------|

e|--------------------------------------------------------------|
B|--------------------------------------------------------------|
G|--------------------------------------------------------------|
D|-2-2-2--2-2-2--2-2-2----5-5-5-5-------------------------------|
A|-2-2-2--2-2-2--2-2-2----5-5-5-5-------------------------------|
D|-2-2-2--2-2-2--2-2-2----5-5-5-5-------------------------------|

e|--------------------------------------------------------------|
B|--------------------------------------------------------------|
G|--------------------------------------------------------------|
D|-2-2-2--2-2-2--2-2-2----0-0-0-0-------------------------------|
A|-2-2-2--2-2-2--2-2-2----0-0-0-0-------------------------------|
D|-2-2-2--2-2-2--2-2-2----0-0-0-0-------------------------------|

e|--------------------------------------------------------------|
B|--------------------------------------------------------------|
G|--------------------------------------------------------------|
D|-2-2-2--2-2-2--2-2-2--2-2-2-2-2-------------------------------|
A|-2-2-2--2-2-2--2-2-2--2-2-2-2-2-------------------------------|
D|-2-2-2--2-2-2--2-2-2--2-2-2-2-2-------------------------------|

Postchorus
e|--------------------------------------------------------------|
B|--------------------------------------------------------------|
G|--------------------------------------------------------------|
D|-2--2-0--2---2--2-0--2---2--2-0--2---5--5-55-5----------------|
A|-2--2-0--2---2--2-0--2---2--2-0--2---5--5-55-5----------------|
D|-2--2-0--2---2--2-0--2---2--2-0--2---5--5-55-5----------------|

e|--------------------------------------------------------------|
B|--------------------------------------------------------------|
G|-------------------------------------4--4-44-4----------------|
D|-2--2-0--2---2--2-0--2---2--2-0--2---4--4-44-4----------------|
A|-2--2-0--2---2--2-0--2---2--2-0--2---2--2-22-2----------------|
D|-2--2-0--2---2--2-0--2---2--2-0--2----------------------------| x2

e|------------------|
B|------------------|
G|--4--4--4--4--4---|
D|--4--4--4--4--4---|
A|--2--2--2--2--2---|
D|------------------|
Suggest correction
Give kudos to tab author, rate the tab!
1 2 3 4 5
comments
print report bad tab
guest
You may want to rate the tab now too:
select rating
Wanna post a correction for this tab? Suggest correction