Oops, an error
Loading. Please wait.

Sorry Sorry Tab

version 1
version 1

Whole song

46,619 views 6 this week
3 commentsread comments
1 2 3 4 5
accurate
x 8
add to favorites
launch autoscroll
font size
0
reset
how to read this tab
guitar tuner
Autoscroll
slow
fast
+/-
esc
set tempo
stop
Help us to improve Ultimate-Guitar.com Take our survey!
×
Author
Difficulty
novice
I like to play it this way...

Intro
e |---------------|
b |---------------|
g |---------------|
d |-4--4--4--4--4-|
a |---------------|
e |---------------|

e |----------------------------------------------------|
b |----------2-------------2--------------2------------|
g |--2-2-2-2-------2-2-2-2-------2-2-2-2------2-2-2-2--|
d |----------------------------------------------------|
a |----------------------------------------------------|
e |----------------------------------------------------|

e |-----------------------|
b |---2---2----2-2-2-2----|
g |-----------------------|
d |-4---4-----4-4-4-4-----|
a |-----------------------|
e |-----------------------|

CHORUS 1:
e |-----------------------------------|
b |-----------------------------------|
g |--2-2-2-2-2-2-2-2-2-2-2-2-2-2-2-2--|
d |--4-4-4-4-2-2-2-2-1-1-1-1-0-0-0-0--|
a |-----------------------------------|
e |-----------------------------------|

e |-----------------------------------|
b |-----------------------------------|
g |--2-2-2-2-2-2-2-2-2-2-2-2-2-2------|
d |--4-4-4-4-2-2-2-2-1-1-1-1-----0-0--|
a |-----------------------------------|
e |-----------------------------------| x2

VERSE:
e |-----------------------------------------------------|
b |--2-1-2-1-2-1-2-1-2-1-2-1-2-1-2-1-2-1-2-1-2-1-2-1-2--|
g |-----------------------------------------------------|
d |-----------------------------------------------------|
a |-----------------------------------------------------|
e |-----------------------------------------------------|

e |----------------------|
b |----------------------|
g |----------------------|
d |-4-4-4-4-4-4-4--4--4--|
a |----------------------|
e |----------------------| x2

PRECHORUS
e |--2-2-2-2-0-0-0-0-----------------|
b |------------------3-3-3-3-2-2-----|
g |------------------------------2-1-|
d |----------------------------------|
a |----------------------------------|
e |----------------------------------| x2

e |--2-2-2-2-0-0-0-0-------0---------|
b |------------------3-3-3---2-2-----|
g |------------------------------2-1-|
d |----------------------------------|
a |----------------------------------|
e |----------------------------------|

CHORUS 1

CHORUS 2:
e |-----------------------|
b |---------0-0-2-3--3----|
g |-----2-2---------------|
d |-4-4-------------------|
a |-----------------------|
e |-----------------------|

e |-----------------------|
b |---------0-0-2---------|
g |-----2-2-------2-2-2-1-|
d |-4-4-------------------|
a |-----------------------|
e |-----------------------| x?

VERSE:
e |-------------------------------|
b |-------------------------------|
g |-2-2-2-2-2-2-2-2-2-2-2-2-2-2---|
d |-----------------------------4-|
a |-------------------------------|
e |-------------------------------|

e |---------------------0---------------|
b |-----------------------3-2-0-0-0-0---|
g |-2-2-2--2--2--2--2-----------------2-|
d |-------------------------------------|
a |-------------------------------------|
e |-------------------------------------|

e |-------|
b |-------|
g |-------|
d |-4-4-4-|
a |-------|
e |-------|

e |-------0------|
b |--2-2-----3-2-|
g |--------------|
d |--------------|
a |--------------|
e |--------------|

e |-------|
b |-------|
g |-------|
d |-4-4-4-|
a |-------|
e |-------|


e |--------------|
b |-----0-0------|
g |-2-2-----2----|
d |-----------4--|
a |--------------|
e |--------------|

e |-------|
b |-------|
g |-------|
d |-4-4-4-|
a |-------|
e |-------|

e |-------0--------|
b |--2-2-----3-2-2-|
g |----------------|
d |----------------|
a |----------------|
e |----------------|

e |----------------------|
b |----------------------|
g |-2-2-2--2--2--2--2--2-|
d |----------------------|
a |----------------------|
e |----------------------|

PRECHORUS (Just first part)

CHORUS 1 & 2

e |----------------|
b |-------------2--|
g |----------------|
d |-4--4--4--4-----|
a |----------------|
e |----------------|

e |------------------------------|
b |----------------------------2-|
g |---2-1---2-1---2-1---2-1------|
d |-4-----4-----4-----4-----4----|
a |------------------------------|
e |------------------------------|

e |-----------------------------------------|
b |-----------------------------------------|
g |---2-2-2-2---2-2-2-2---2-2-2-2---2-2-2-2-|
d |-4---------4---------4---------4---------|
a |-----------------------------------------|
e |-----------------------------------------|

e |-----------------------|
b |---2---2----2-2-2-2----|
g |-----------------------|
d |-4---4-----4-4-4-4-----|
a |-----------------------|
e |-----------------------|

BRIDGE

e |--2--|
b |-----|
g |-----|
d |-----|
a |-----|
e |-----|

e |-----------------------------------------------------|
b |-0-0-0---0---0---0---0-0-0---0----2----------3-2-3-2-|
g |-------2---2---2-----------2---2-----2---------------|
d |----------------------------------------4-2----------|
a |-----------------------------------------------------|
e |-----------------------------------------------------|

e |-2-----------------------------0-0-0-0-----------2--2--2-|
b |---0-0-0---0---0--0-1-0--0-0-----------2--0--------------|
g |---------2---2---------------2--------------2------------|
d |---------------------------------------------------------|
a |---------------------------------------------------------|
e |---------------------------------------------------------|

LAST PRECHORUS:
e |-2-2-2-2-0-0-0-0------------------|
b |-----------------3-3-3-2-3-2-3-2--|
g |----------------------------------|
d |----------------------------------|
a |----------------------------------|
e |----------------------------------|

e |---------------------------------|
b |---------------------------0-0---|
g |-2-2-2-2-2-2-2-2-2-2-2-2-2-----2-|
d |---------------------------------|
a |---------------------------------|
e |---------------------------------|

e |--2-2-2-2-0-0-0-0-----------0-----|
b |------------------3-3-3-2-3---3-2-|
g |----------------------------------|
d |----------------------------------|
a |----------------------------------|
e |----------------------------------|


e |---------------7-9-9-9-9-9-9-9-9-9-9-9\-|
b |----------------------------------------|
g |-2-2-2-2-2-2-2--------------------------|
d |----------------------------------------|
a |----------------------------------------|
e |----------------------------------------|

CHORUS 1

OUTRO:
e |----------------------------------------|
b |---------------------------------2---2--|
g |-------------2-1--2-1--2-1--2-1---------|
d |-4--4--4--4-----------------------------|
a |----------------------------------------|
e |----------------------------------------|

e |-----------------------|
b |---2---2----2-2-2-2----|
g |-----------------------|
d |-4---4-----4-4-4-4-----|
a |-----------------------|
e |-----------------------|

e |--2-2-----|
b |----------|
g |----------|
d |-------4~-|
a |----------|
e |----------|


Or you can play this trough whole song:
e |-----------------------------|
b |-----------------------------|
g |-----------------------------|
d |-----------------------0--0--|
a |--------0--0-2--2--4---------|
e |-2--2------------------------|

Or add this Chorus:
e |----------------------------|
b |----------------------------|
g |---------2--2-4--4--6-7--7--|
d |--4--4---2--2-4--4--6-7--7--|
a |--4--4---0--0-2--2--4-5--5--|
e |--2--2----------------------|

e |--------------------------------|
b |--------------------------------|
g |---------2--2-4--4--6-----------|
d |--4--4---2--2-4--4--6--7-7-7-6--|
a |--4--4---0--0-2--2--4--7-7-7-6--|
e |--2--2-----------------5-5-5-4--|


You can play it with more guitars. It’s really easy and sounds good in any way you play 
Cool song. Hope I can tab more from Super junior...

http://superjunior.smtown.com/
Suggest correction new What's this?
You can suggest a correction to this tab. Community and Mods will review your correction and vote to approve or reject it.
comments
print report bad tab
3 comments total.
0 reply
datster747 29 wrote on September 3 2009, 01:28 pm

hey dude...it's a shame there is literally no korean music here. started own epik high tab xD

0 reply
anonymous7 123 wrote on September 12 2009, 02:04 am

good tab, 5 stars

-1 reply
ihateme16 10 wrote on July 17 2010, 01:25 am

bad for you.. not even close to the real notes

guest
You may want to rate the tab now too:
select rating
Please do not post tabs as comments. Select "correction" instead!