Oops, an error
Loading. Please wait.

Acid Machine Tab

27 views 3 this week
no commentswrite comment
1 2 3 4 5
please rate
add to favorites
launch autoscroll
font size
0
reset
how to read this tab
guitar tuner
Autoscroll
slow
fast
+/-
esc
set tempo
stop
Help us to improve Ultimate-Guitar.com Take our survey!
×
SUPER NOT - "Acid Machine"
taken from the album "Phlegmatic Sun"

tabbed by Giacomo Fusetti (facethefall@supereva.it or hobbiville@libero.it)


... palm muting
vvv vibrato
\   slide down

Tune down to C# (C# F# B E G# C#)


 Main Riff
|-------------------------------------------------------------|
|-------------------------------------------------------------|
|-------------------------------------------------------------|
|-------------------------------------------------------------|
|-2-2-2-5--2-2-5--2-2-2-5-7-8---2-2-2-5--2-2-5--2-2-2-5-8-7---|
|-0-0-0-3--0-0-3--0-0-0-3-5-6---0-0-0-3--0-0-3--0-0-0-3-6-5---|
  .....    ...    ..........    .....    ...    .........


 Chorus (Acid in the fields...)
|-----------------------------------------------------------|x2
|-----------------------------------------------------------|
|-----------------------------------------------------------|
|-----------------------------------------------------------|
|-2-2-2-2-2--2-2-2-2-2-2-vvvvv-2-2-2-2-2--2-2-2-2-2-2-vv-vv-|
|-0-0-0-0-0--0-0-0-0-0-0-3-----0-0-0-0-0--0-0-0-0-0-0-6--1--|
  .........  ...........       .........  ...........


 Chorus 2
|-----------------------------------------------------------|x2
|-----------------------------------------------------------|
|-----------------------------------------------------------|
|-----------------------------------------------------------|
|-2-2-2-2-2--2-222-2-2-2-vvvvv-2-2-2-2-2--2-222-2-2-2-vv-vv-|
|-0-0-0-0-0--0-000-0-0-0-3-----0-0-0-0-0--0-000-0-0-0-6--1--|
  .........  ...........       .........  ...........

 
 After the chorus
|-----------------------------------------------------------|x2
|-----------------------------------------------------------|
|-----------------------------------------------------------|
|-----------------------------------------------------------|
|-2-2-2-2-2--2-222-2-2-2-vvvvv-2-2-2-2-2--2-222-2-2-2-vv-vv-|
|-0-0-0-0-0--0-000-0-0-0-3-----0-0-0-0-0--0-000-0-0-0-6--1--|
  .........  ...........       .........  ...........


 (solo starts 3rd time)
|-------------------------------------------------------------|x6
|-------------------------------------------------------------|
|---------9\-------------9\-------------9\-------------9\-----|
|---------9\-------------9\-------------9\-------------9\-----|
|-2-2-2-2----2-2-2-2-2-2----2-2-2-2-2-2----2-2-2-2-2-2----2-2-|
|-0-0-0-0----0-0-0-0-0-0----0-0-0-0-0-0----0-0-0-0-0-0----0-0-|
  .......    ...........    ...........    ...........    ... 


 "solo"
|---vvvv--3--vvvv---vvvv--3--vvvv---7----7/8----8/9----9/10----11----12----13--14--15-16-17-18-|
|-/3--------5-----/3--------5------------------------------------------------------------------|
|----------------------------------------------------------------------------------------------|
|----------------------------------------------------------------------------------------------|
|----------------------------------------------------------------------------------------------|
|----------------------------------------------------------------------------------------------|


Then 
|---------------| 
|---------------| 
|---------------| 
|---------------| 
|-2----------\--| 
|-0----------\--| 


 
 After the last chorus
|-------------------------------------------------------------|x2
|-------------------------------------------------------------|
|-------------------------------------------------------------|
|-------------------------------------------------------------|
|-2-2-2-2--vv-vv-2-2-2-2--vv-vv-2-2-2-2--vv-vv-2-2-2-2--vv-vv-|
|-0-0-0-0-3--3---0-0-0-0-3--3---0-0-0-0-3--3---0-0-0-0-3--3---|
  .......        .......        .......        .......


|-------------------------------------------------------------|x2
|-------------------------------------------------------------|
|-------------------------------------------------------------|
|----------vv-vv----------vv-vv----------vv-vv----------vv-vv-|
|-2-2-2-2-5--5---2-2-2-2-5--5---2-2-2-2-5--5---2-2-2-2-5--5---|
|-0-0-0-0-3--3---0-0-0-0-3--3---0-0-0-0-3--3---0-0-0-0-3--3---|
  .......        .......        .......        .......


Then 
|----| 
|----| 
|----| 
|----| 
|-2--| 
|-0--|


 




Suggest correction
Give kudos to tab author, rate the tab!
1 2 3 4 5
comments
print report bad tab
guest
You may want to rate the tab now too:
select rating
Wanna post a correction for this tab? Suggest correction