Oops, an error
Loading. Please wait.

Algo Diferente Tab

27 views 1 this week
no commentswrite comment
1 2 3 4 5
2 more votes to show rating
add to favorites
launch autoscroll
font size
0
reset
how to read this tab
guitar tuner
×
Best way to learn
"Algo Diferente"
Autoscroll
slow
fast
+/-
esc
set tempo
stop
De nuevo he sacado tiempo para tabular...y esta es una de mis preferidas.
Espero que no resulte dificil de entender. 

Siempre que me sea posible, esto lo haré de manera que sea tablatura y 
acordes a la vez, pk a mi no me gusta solo de acordes o solo de tabs...


Estos son los acordes que se usan en el tema:

   A   SIm7  DO#m7  RE7   RemDim(creo ;))
e--0----2------4-----5-------1-------------------------------------------
b--2----3------5-----7-------0-------------------------------------------
g--2----2------4-----6-------2-------------------------------------------
d--2----4------6-----7-------0-------------------------------------------
a--0----2------4-----5-------0-------------------------------------------
e-(0)--(2)----(4)---(5)--------------------------------------------------

Entonces, esto se repite todo el tema, es siempre igual. Vamos a decir 
que tiene tres partes, ah?

Inicio o intro:

e-------------------------------------------------------------------------
b----2-------5---3--------5--3------2-------3----------2^3^2--------------
g----2-------4---2--------4--2----2---2---2---2------2-------2------------
d----2-0-----6---4--------6--4---------------------2-----------2----------
a-0-------4------2--0-2~4----2--0-------2--------0---------------0--------
e-------------------------------------------------------------------------

Parte 1

e---------------------------------------------------------------------------
b----2------3---5--5~7--5--3-----2-------3---5------3---------2^3^2---------
g----2------2---4--4~6--4--2-----2-------2---4----2---2-----2-------2-------
d----2-0----4---6----------------2-0-----4---6------------2-----------2-----
a-0-------2-----4-------------0-------2------4--2-------0---------------0---
e---------------------------------------------------------------------------

Parte 2

e-----------1---------------------------------------------------------------
b--7--5--3--0---------------------------------------------------------------
g--6--4--2--2---------------------------------------------------------------
d--7--6--4--0---------------------------------------------------------------
a--5--4--2--0---------------------------------------------------------------
e---------------------------------------------------------------------------

Bueno
Digamos que la parte 1 es donde va la letra y tal..y cuando dice lo de ouououou 
es cuando entra la segunda parte. No pongo la letra y los acordes encima pk no 
tengo tiempo lo primero...Y pk cantarla y tocarla a la vez es muy txungo, a mi 
m cuesta mazo...pero bueno, os aconsejo k la toke alguien y la canteis o al 
revés pk si no es un lío. Los punteos si tengo tiempo ya los sacaré... Un saludo.
Suggest correction
Give kudos to tab author, rate the tab!
1 2 3 4 5
comments
print report bad tab
guest
You may want to rate the tab now too:
select rating
Wanna post a correction for this tab? Suggest correction