Oops, an error
Loading. Please wait.

Travel The World tab

version 1
version 1

Whole song

Interactive

1,246 views 3 this week
no commentswrite comment
1 2 3 4 5
3 more votes to show rating
add to favorites
×
Save as Personal and add changes to this tab that will be seen only by you. Learn more ›
×
You can save this tab as Personal to edit and correct it or add notes. All changes will be seen only by you. Learn more »
launch autoscroll
font size
0
reset
how to read this tab
guitar tuner
edit
Autoscroll
slow
fast
+/-
esc
set tempo
stop
Author
Difficulty
Title: Travel The World
Artist: Superbus
Album: Wow
Tempo = 132
Piste 1

Legend
L - tied note
x - dead note
h - hammer on/pull off
b - bend
s - slide
~ - vibrato
g - ghost note
> - accentuated note
t - trill
M - palm mute
. - staccato
P - popping (bass)
S - slapping (bass)
+ - tapping
W - wide vibrato
< - fade in
w - whammy bar
= - tremolo picking
v - brush up
^ - brush down
V - pick stroke up
n - pick stroke down


E ||---------------------------------------------------|
B ||---------------------------------------------------|
G ||o7-----9-----9h-11h9-----7-------------------------|
D ||o------------------------------9-------------------|
A ||---------------------------------------------------|
E ||---------------------------------------------------|


----------------------------------------------------|
----------------------------------------------------|
--7-----9-----9h-11h9-----7s----11------------------|
----------------------------------------------------|
----------------------------------------------------|
----------------------------------------------------|


----------------------------------------------------|
----------------------------------------------------|
--7-----9-----9h-11h9-----7-------------------------|
--------------------------------9-------------------|
----------------------------------------------------|
----------------------------------------------------|


----------------------------------------------------|
----------------------------------------------------|
--7-----9-----9h-11h9-----7s----11------------------|
----------------------------------------------------|
----------------------------------------------------|
----------------------------------------------------|


----------------------------------------------------|
----------------------------------------------------|
--7-----9-----9h-11h9-----7-------------------------|
--------------------------------9-------------------|
----------------------------------------------------|
----------------------------------------------------|


----------------------------------------------------|
----------------------------------------------------|
--7-----9-----9h-11h9-----7s----11------------------|
----------------------------------------------------|
----------------------------------------------------|
----------------------------------------------------|


----------------------------------------------------|
--8-----------------7-------------------------------|
--------------------------------------9-------------|
----------------------------------------------------|
----------------------------------------------------|
----------------------------------------------------|


---------------------------------------------------|||
--8------------------------------------------------|||
--------------------9-----------------7-----------o|||
--------------------------------------------------o|||
---------------------------------------------------|||
---------------------------------------------------|||


---------------------------|----------------------------|
---------------------------|----------------------------|
o--------------------------|----------------------------|
o4M-4M-4M-4M-4M-4M-4M-4M---|--4M-4M-4M-4M-4M-4M-4M-4M---|
-2M-2M-2M-2M-2M-2M-2M-2M---|--2M-2M-2M-2M-2M-2M-2M-2M---|
---------------------------|----------------------------|


----------------------------|----------------------------|
----------------------------|----------------------------|
----------------------------|----------------------------|
--7M-7M-7M-7M-7M-7M-7M-7M---|--7M-7M-7M-7M-7M-7M-7M-7M---|
--5M-5M-5M-5M-5M-5M-5M-5M---|--5M-5M-5M-5M-5M-5M-5M-5M---|
----------------------------|----------------------------|


----------------------------|----------------------------|
----------------------------|----------------------------|
----------------------------|----------------------------|
----------------------------|----------------------------|
--2M-2M-2M-2M-2M-2M-2M-2M---|--2M-2M-2M-2M-2M-2M-2M-2M---|
--0M-0M-0M-0M-0M-0M-0M-0M---|--0M-0M-0M-0M-0M-0M-0M-0M---|


----------------------------|---------------------------||
----------------------------|---------------------------||
----------------------------|--------------------------o||
----------------------------|--------------------------o||
--5M-5M-5M-5M-5M-5M-5M-5M---|--5M-5M-5M-5M-5--5--5--5---||
--3M-3M-3M-3M-3M-3M-3M-3M---|--3M-3M-3M-3M-3--3--3--3---||


----------------------------||---------------------------|
----------------------------||---------------------------|
----------------------------||o4--4--4--4--4--4--4--4----|
--------------5--5--5--5----||o4--4--4--4--4--4--4--4----|
--5--5--5--5--5--5--5--5----||-2--2--2--2--2--2--2--2----|
--3--3--3--3--3--3--3--3----||---------------------------|


----------------------------|----------------------------|
----------------------------|----------------------------|
----------------------------|--7--7--7--7--7--7--7--7----|
--5--5--5--5--5--5--5--5----|--7--7--7--7--7--7--7--7----|
--5--5--5--5--5--5--5--5----|--5--5--5--5--5--5--5--5----|
--3--3--3--3--3--3--3--3----|----------------------------|


---------------------------||
---------------------------||
--------------------------o||
--7--7--7--7--7--7--7--7--o||
--7--7--7--7--7--7--7--7---||
--5--5--5--5--5--5--5--5---||


----------------------------------------------------|
----------------------------------------------------|
--7-----9-----9h-11h9-----7-------------------------|
--------------------------------9-------------------|
----------------------------------------------------|
----------------------------------------------------|


----------------------------------------------------|
----------------------------------------------------|
--7-----9-----9h-11h9-----7s----11------------------|
----------------------------------------------------|
----------------------------------------------------|
----------------------------------------------------|


----------------------------------------------------|
----------------------------------------------------|
--7-----9-----9h-11h9-----7-------------------------|
--------------------------------9-------------------|
----------------------------------------------------|
----------------------------------------------------|


----------------------------------------------------|
----------------------------------------------------|
--7-----9-----9h-11h9-----7s----11------------------|
----------------------------------------------------|
----------------------------------------------------|
----------------------------------------------------|


----------------------------------------------------|
----------------------------------------------------|
--7-----9-----9h-11h9-----7-------------------------|
--------------------------------9-------------------|
----------------------------------------------------|
----------------------------------------------------|


----------------------------------------------------|
----------------------------------------------------|
--7-----9-----9h-11h9-----7s----11------------------|
----------------------------------------------------|
----------------------------------------------------|
----------------------------------------------------|


----------------------------------------------------|
--8-----------------7-------------------------------|
--------------------------------------9-------------|
----------------------------------------------------|
----------------------------------------------------|
----------------------------------------------------|


----------------------------------------------------|
--8-------------------------------------------------|
--------------------9-----------------7-------------|
----------------------------------------------------|
----------------------------------------------------|
----------------------------------------------------|


----------------------------|----------------------------|
----------------------------|----------------------------|
----------------------------|----------------------------|
--4M-4M-4M-4M-4M-4M-4M-4M---|--4M-4M-4M-4M-4M-4M-4M-4M---|
--2M-2M-2M-2M-2M-2M-2M-2M---|--2M-2M-2M-2M-2M-2M-2M-2M---|
----------------------------|----------------------------|


----------------------------|----------------------------|
----------------------------|----------------------------|
----------------------------|----------------------------|
--7M-7M-7M-7M-7M-7M-7M-7M---|--7M-7M-7M-7M-7M-7M-7M-7M---|
--5M-5M-5M-5M-5M-5M-5M-5M---|--5M-5M-5M-5M-5M-5M-5M-5M---|
----------------------------|----------------------------|


----------------------------|----------------------------|
----------------------------|----------------------------|
----------------------------|----------------------------|
----------------------------|----------------------------|
--2M-2M-2M-2M-2M-2M-2M-2M---|--2M-2M-2M-2M-2M-2M-2M-2M---|
--0M-0M-0M-0M-0M-0M-0M-0M---|--0M-0M-0M-0M-0M-0M-0M-0M---|


----------------------------|----------------------------|
----------------------------|----------------------------|
----------------------------|----------------------------|
----------------------------|----------------------------|
--5M-5M-5M-5M-5M-5M-5M-5M---|--5M-5M-5M-5M-5--5--5--5----|
--3M-3M-3M-3M-3M-3M-3M-3M---|--3M-3M-3M-3M-3--3--3--3----|


----------------------------||---------------------------|
----------------------------||---------------------------|
----------------------------||o4--4--4--4--4--4--4--4----|
--------------5--5--5--5----||o4--4--4--4--4--4--4--4----|
--5--5--5--5--5--5--5--5----||-2--2--2--2--2--2--2--2----|
--3--3--3--3--3--3--3--3----||---------------------------|


----------------------------|----------------------------|
----------------------------|----------------------------|
----------------------------|--7--7--7--7--7--7--7--7----|
--5--5--5--5--5--5--5--5----|--7--7--7--7--7--7--7--7----|
--5--5--5--5--5--5--5--5----|--5--5--5--5--5--5--5--5----|
--3--3--3--3--3--3--3--3----|----------------------------|


---------------------------||----------------------------|
---------------------------||--------3-----------3-------|
--------------------------o||--------4-----------4-------|
--7--7--7--7--7--7--7--7--o||--4--4--------4--4----------|
--7--7--7--7--7--7--7--7---||--2--2--------2--2----------|
--5--5--5--5--5--5--5--5---||----------------------------|


----------------------------|----------------------------|
--------3-----------3-------|--------7-----------7-------|
--------4-----------4-------|--------7-----------7-------|
--4--4--------4--4----------|--7--7--------7--7----------|
--2--2--------2--2----------|--5--5--------5--5----------|
----------------------------|----------------------------|


----------------------------|----------------------------|
--------7-----------7-------|----------------------------|
--------7-----------7-------|----------------------------|
--7--7--------7--7----------|----------------------------|
--5--5--------5--5----------|--2--2--------2--2----------|
----------------------------|--0--0--------0--0----------|


----------------------------|----------------------------|
----------------------------|--------3-----------3-------|
----------------------------|--------4-----------4-------|
----------------------------|----------------------------|
--2--2--------2--2----------|--5--5--------5--5----------|
--0--0--------0--0----------|--3--3--------3--3----------|


----------------------------||---------------------------|
--------3-----------3-------||---------------------------|
--------4-----------4-------||o--------------------------|
----------------------------||o4M-4M-4M-4M-4M-4M-4M-4M---|
--5--5--------5--5----------||-2M-2M-2M-2M-2M-2M-2M-2M---|
--3--3--------3--3----------||---------------------------|


----------------------------|----------------------------|
----------------------------|----------------------------|
----------------------------|----------------------------|
--4M-4M-4M-4M-4M-4M-4M-4M---|--7M-7M-7M-7M-7M-7M-7M-7M---|
--2M-2M-2M-2M-2M-2M-2M-2M---|--5M-5M-5M-5M-5M-5M-5M-5M---|
----------------------------|----------------------------|


----------------------------|----------------------------|
----------------------------|----------------------------|
----------------------------|----------------------------|
--7M-7M-7M-7M-7M-7M-7M-7M---|----------------------------|
--5M-5M-5M-5M-5M-5M-5M-5M---|--2M-2M-2M-2M-2M-2M-2M-2M---|
----------------------------|--0M-0M-0M-0M-0M-0M-0M-0M---|


----------------------------|----------------------------|
----------------------------|----------------------------|
----------------------------|----------------------------|
----------------------------|----------------------------|
--2M-2M-2M-2M-2M-2M-2M-2M---|--5M-5M-5M-5M-5M-5M-5M-5M---|
--0M-0M-0M-0M-0M-0M-0M-0M---|--3M-3M-3M-3M-3M-3M-3M-3M---|


---------------------------||----------------------------|
---------------------------||----------------------------|
--------------------------o||----------------------------|
--------------------------o||----------------------------|
--5M-5M-5M-5M-5--5--5--5---||--5--5--5--5--5--5--5--5----|
--3M-3M-3M-3M-3--3--3--3---||--3--3--3--3--3--3--3--3----|


----------------------------|----------------------------||
----------------------------|----------------------------||
----------------------------|----------------------------||
----------------------------|--------------5--5--5--5----||
--5--5--5--5--5--5--5--5----|--5--5--5--5--5--5--5--5----||
--3--3--3--3--3--3--3--3----|--3--3--3--3--3--3--3--3----||


---------------------------|----------------------------|
---------------------------|----------------------------|
o4--4--4--4--4--4--4--4----|----------------------------|
o4--4--4--4--4--4--4--4----|--5--5--5--5--5--5--5--5----|
-2--2--2--2--2--2--2--2----|--5--5--5--5--5--5--5--5----|
---------------------------|--3--3--3--3--3--3--3--3----|


----------------------------|---------------------------||
----------------------------|---------------------------||
--7--7--7--7--7--7--7--7----|--------------------------o||
--7--7--7--7--7--7--7--7----|--7--7--7--7--7--7--7--7--o||
--5--5--5--5--5--5--5--5----|--7--7--7--7--7--7--7--7---||
----------------------------|--5--5--5--5--5--5--5--5---||


----------------------------|----------------------------|
--------3-----------3-------|--------3-----------3-------|
--------4-----------4-------|--------4-----------4-------|
--4--4--------4--4----------|--4--4--------4--4----------|
--2--2--------2--2----------|--2--2--------2--2----------|
----------------------------|----------------------------|


----------------------------|----------------------------|
--------7-----------7-------|--------7-----------7-------|
--------7-----------7-------|--------7-----------7-------|
--7--7--------7--7----------|--7--7--------7--7----------|
--5--5--------5--5----------|--5--5--------5--5----------|
----------------------------|----------------------------|


----------------------------|----------------------------|
----------------------------|----------------------------|
----------------------------|----------------------------|
----------------------------|----------------------------|
--2--2--------2--2----------|--2--2--------2--2----------|
--0--0--------0--0----------|--0--0--------0--0----------|


----------------------------|----------------------------|----------------||
--------3-----------3-------|----------------------------|----------------||
--------4-----------4-------|----------------------------|----------------||
----------------------------|----------------------------|----------------||
--5--5--------5--5----------|--5--5----------------------|----------------||
--3--3--------3--3----------|--3--3----------------------|----------------||
Suggest correction
Creating personal tab
Creating personal tab
You can edit any tab online and save it as your Personal.

You can edit, replace or remove any tab part or add personal notes – all changes will be seen only by you.

Personal tabs can be accessed anytime from any device, even offline.
Learn more »
Give kudos to tab author, rate the tab!
1 2 3 4 5
comments
print report bad tab
guest
You may want to rate the tab now too:
select rating
Wanna post a correction for this tab? Suggest correction