Oops, an error
Loading. Please wait.

My Dearest Acoustic tab

version 2
version 2

Whole song

  • Somewhat different version that is more or less co... Show more
280 views 6 this week
no commentswrite comment
1 2 3 4 5
2 more votes to show rating
add to favorites
×
Save as Personal and add changes to this tab that will be seen only by you. Learn more ›
×
You can save this tab as Personal to edit and correct it or add notes. All changes will be seen only by you. Learn more »
launch autoscroll
font size
0
reset
how to read this tab
guitar tuner
edit
Autoscroll
slow
fast
+/-
esc
set tempo
stop
About this tab version
Somewhat different version that is more or less converted from a piano rendition of the song. Tabbed by ear so there may be some tones/notes that are wrong. Was this info helpful? Yes No
Personal rendition of a piano rendition
Tried to stay as accurate as possible


[Intro]

e|---------------------------------------------------------------------------|
B|----13-12-10---------------------------------------------------------------|
G|-12----------12-12----9-10-9-10-9-10-9-------------------------------------|
D|-------------------12------------------12-10-9-10--------------------------|
A|---------------------------------------------------------------------------|
E|---------------------------------------------------------------------------|

e|---------------------------------------------------------------------------|
B|----------13--13-12-10-----------------------------------------------------|
G|-----------------------12--12-10-9-7--7-9-10-9-7v--------------------------|
D|-10\12/10------------------------------------------------------------------|
A|---------------------------------------------------------------------------|
E|---------------------------------------------------------------------------|

e|--------------15--15-13-12-10----------12----------------------------------|
B|-13--13-12-13-----------------10\13-15-------------------------------------|
G|---------------------------------------------------------------------------|
D|---------------------------------------------------------------------------|
A|---------------------------------------------------------------------------|
E|---------------------------------------------------------------------------|

[Verse]

e|---------------------------------------------------------------------------|
B|---------------------------------------------------------------------------|
G|-9-----12-12-10-9----------------------------------------------------------|
D|----10------------10-12-10-12-10\12/10--9-10-9-10-9----------7-7---10------|
A|----------------------------------------------------10-10-10----------10---|
E|---------------------------------------------------------------------------|

e|---------------------------------------------------------------------------|
B|---------------------------------------------------------------------------|
G|-9-9-9-10-10-10/9----------------------------------------------------------|
D|------------------12-10-9--10-10-------------------------------------------|
A|---------------------------------------------------------------------------|
E|---------------------------------------------------------------------------|

e|---------------------------------------------------------------------------|
B|---------------------------------------------------------------------------|
G|----12-12-10-9-------------------------------------------------------------|
D|-10------------10-12-10-12-10\12/10--9-7-11-12-14-15-14-12/10-7------------|
A|---------------------------------------------------------------10----------|
E|---------------------------------------------------------------------------|

e|---------------------------------------------------------------------------|
B|----------------------------------------13-13-13-13-13-13-13-13-12-10-8-8--|
G|-------9-9-10-10-9---------------------------------------------------------|
D|-10\12-------------12-10-9-10-14-12-10-------------------------------------|
A|---------------------------------------------------------------------------|
E|---------------------------------------------------------------------------|

e|---------------------------------------------------------------------------------|
B|---------------------------------------------------------------------------------|
G|-------9-10-9-------9-10-9-------9-10-9-10-9-------------------------------------|
D|-10\12--------10/12--------10/12-------------12-10-9-10--10-10-10-10-10-7--------|
A|--------------------------------------------------------------------------10-10--|
E|---------------------------------------------------------------------------------|

e|---------------------------------------------------------------------------|
B|---------------------------------------------------------------------------|
G|-------------------------12------------------------------------------------|
D|-10-12-14-14-15-14-12-15---------------------------------------------------|
A|---------------------------------------------------------------------------|
E|---------------------------------------------------------------------------|

[Channel]
e|---------------------------------------------------------------------------|
B|----13-12-10---------------------------------------------------------------|
G|-------------12-12----9-10-9-10-9-10-9-------------------------------------| x3
D|-10----------------12------------------12-10-------------------------------|
A|---------------------------------------------------------------------------|
E|---------------------------------------------------------------------------|

e|----------------------------12-13-12-13-12---------------------------------|
B|----13-12-13----15-13-15-------------------15-15-13------------------------|
G|-12----------12----------12------------------------------------------------|
D|---------------------------------------------------------------------------|
A|---------------------------------------------------------------------------|
E|---------------------------------------------------------------------------|

[Chorus]

e|---------------------------------------------------------------------------|
B|----13-12-10---------------------------------------------------------------|
G|-12----------12-12----9-10-9-10-9-10-9-------------------------------------|
D|-------------------12------------------12-10-12----------------------------|
A|---------------------------------------------------------------------------|
E|---------------------------------------------------------------------------|

e|---------------------------------------------------------------------------|
B|----13-12-10---------------------------------------------------------------|
G|-12----------12-12----9-10-9-10-9-10-12-14-12------------------------------|
D|-------------------12------------------------------------------------------|
A|---------------------------------------------------------------------------|
E|---------------------------------------------------------------------------|

e|---------------------------------------------------------------------------|
B|----13-12-10---------------------------------------------------------------|
G|-12----------12-12----9-10-9-10-9-10-9-------------------------------------|
D|-------------------12------------------12-10-9-10v-------------------------|
A|---------------------------------------------------------------------------|
E|---------------------------------------------------------------------------|

[Bridge]

e|----------------------------12-14-15-17-17---------------------------------|
B|----------------------12-15------------------------------------------------|
G|----------12-11-12-14------------------------------------------------------|
D|-10\12/10------------------------------------------------------------------|
A|---------------------------------------------------------------------------|
E|---------------------------------------------------------------------------|

[Verse]

e|---------------------------------------------------------------------------|
B|---------------------------------------------------------------------------|
G|-9v-----12-12-10-9---------------------------------------------------------|
D|-10v-10-------------10-12-10-12-10\12/10--9-7-11-12-14-15-14-12-10--7------|
A|----------------------------------------------------------------------10v--|
E|---------------------------------------------------------------------------|


e|---------------------------------------------------------------------------|
B|----------------------------------------13-13-13-13-13-13-13-13-12-10-8-8--|
G|---------------------------------------------------------------------------|
D|-10-12-14-15-15-14-12-10-9-10-14-12--10------------------------------------|
A|---------------------------------------------------------------------------|
E|---------------------------------------------------------------------------|

e|-------------------------------------------------------------------------12------|
B|---------------------------------------------------12-13--13-13-13-13-15----13---|
G|-------9-10-9-------9-10-9-------9-10-9-10-9-10-12-------------------------------|
D|-10\12--------10/12--------10/12-------------------------------------------------|
A|---------------------------------------------------------------------------------|
E|---------------------------------------------------------------------------------|

e|---------------------------------------------------------------------------|
B|---------------------------------------------------------------------------|
G|---------------------------------------------------------------------------|
D|-10-12-14-14-15-14-12-14-12-15-17------------------------------------------|
A|---------------------------------------------------------------------------|
E|---------------------------------------------------------------------------|

[Channel]

e|---------------------------------------------------------------------------|
B|----13-12-10---------------------------------------------------------------|
G|-------------12-12----9-10-9-10-9-10-9-------------------------------------| x3
D|-10----------------12------------------12-10-------------------------------|
A|---------------------------------------------------------------------------|
E|---------------------------------------------------------------------------|

e|----------------------------12-13-12-13-12---------------------------------|
B|----13-12-13----15-13-15-------------------15-15-13------------------------|
G|-12----------12----------12------------------------------------------------|
D|---------------------------------------------------------------------------|
A|---------------------------------------------------------------------------|
E|---------------------------------------------------------------------------|

[Chorus]

e|---------------------------------------------------------------------------|
B|----13-12-10---------------------------------------------------------------|
G|-12----------12-12----9-10-9-10-9-10-9-------------------------------------|
D|-------------------12------------------12-10-12----------------------------|
A|---------------------------------------------------------------------------|
E|---------------------------------------------------------------------------|

e|---------------------------------------------------------------------------|
B|----13-12-10---------------------------------------------------------------|
G|-12----------12-12----9-10-9-10-9-10-12-14-12------------------------------|
D|-------------------12------------------------------------------------------|
A|---------------------------------------------------------------------------|
E|---------------------------------------------------------------------------|

e|---------------------------------------------------------------------------|
B|----13-12-10---------------------------------------------------------------|
G|-12----------12-12----9-10-9-10-9-10-9-------------------------------------|
D|-------------------12------------------12-10-9-10v-------------------------|
A|---------------------------------------------------------------------------|
E|---------------------------------------------------------------------------|

[Bridge]

e|------------------------------------------------------------------------------------|
B|------------------------------------------------------------------------------------|
G|---------------------------------------------------9--------------------------------|
D|-10-12-10-12--10--12--10-9------------15-14-12-10----12-10-9-10-10-10-10-9-9-10-10--|
A|---------------------------10-10-10-7-----------------------------------------------|
E|------------------------------------------------------------------------------------|

e|---------------------------------------------------------------------------|
B|---------------------------------------------------------------------------|
G|--------------------------------------9-9-10---12v-------------------------|
D|-10-10-10-12-12-14-14--10-10-10-12-12--------------------------------------|
A|---------------------------------------------------------------------------|
E|---------------------------------------------------------------------------|

e|----------15----------15----------15v---------------------------------------------------|
B|-13----13----13----13----13----13-------------------------------------------------------|
G|----12----------12----------12---------------------------------------9-10-9-10-9--------|
D|---------------------------------------10-12-10-12-10-12-10-12-10----------------12-10--|
A|------------------------------------------------------------------10--------------------|
E|----------------------------------------------------------------------------------------|

e|---------------------------------------------------------------------------|
B|---------------------------------------------------------------------------|
G|-------------------------------14-12----12---------------------------------|
D|-10-12-10-12-10-12-10-12-10-10-------14----14-12-10------------------------|
A|---------------------------------------------------------------------------|
E|---------------------------------------------------------------------------|

e|---------------------------------------------------------------------------|
B|---------------------------------------------------------------------------|
G|-------------------------------9-10-9-10-9---------------------------------|
D|-10-12-10-12-10-12-10-12-10----------------12-10---------------------------|
A|----------------------------10---------------------------------------------|
E|---------------------------------------------------------------------------|

[Channel]

e|----------------------------12-13-12-13-12---------------------------------|
B|----13-12-13----15-13-15-------------------15-15-13------------------------|
G|-12----------12----------12------------------------------------------------|
D|---------------------------------------------------------------------------|
A|---------------------------------------------------------------------------|
E|---------------------------------------------------------------------------|

[Chorus]

e|---------------------------------------------------------------------------|
B|----13-12-10---------------------------------------------------------------|
G|-12----------12-12----9-10-9-10-9-10-9-------------------------------------|
D|-------------------12------------------12-10-12----------------------------|
A|---------------------------------------------------------------------------|
E|---------------------------------------------------------------------------|

e|---------------------------------------------------------------------------|
B|----13-12-10---------------------------------------------------------------|
G|-12----------12-12----9-10-9-10-9-10-12-14-12------------------------------|
D|-------------------12------------------------------------------------------|
A|---------------------------------------------------------------------------|
E|---------------------------------------------------------------------------|

e|---------------------------------------------------------------------------|
B|----13-12-10---------------------------------------------------------------|
G|-12----------12-12----9-10-9-10-9-10-9-------------------------------------|
D|-------------------12------------------12-10-9-10v-------------------------|
A|---------------------------------------------------------------------------|
E|---------------------------------------------------------------------------|

[Outro]

e|----------------------------14-16-17-19-19---------------------------------|
B|-------------------12-14-17------------------------------------------------|
G|----------14-13-14---------------------------------------------------------|
D|-10\12/10------------------------------------------------------------------|
A|---------------------------------------------------------------------------|
E|---------------------------------------------------------------------------|

e|---------------------------------------------------------------------------|
B|---------------------------------------------------------------------------|
G|----------9-10--12-10-9--12-13-15-13-12------------------------------------|
D|-10-10-10--------------------------------10--10--10--10--10-10-10-10-------|
A|---------------------------------------------------------------------------|
E|---------------------------------------------------------------------------|


************************************


| /   Slide up
| \   Slide down
| v   Vibrato


************************************

            
            
Suggest correction
Creating personal tab
Creating personal tab
You can edit any tab online and save it as your Personal.

You can edit, replace or remove any tab part or add personal notes – all changes will be seen only by you.

Personal tabs can be accessed anytime from any device, even offline.
Learn more »
Give kudos to tab author, rate the tab!
1 2 3 4 5
comments
print report bad tab
guest
You may want to rate the tab now too:
select rating
Wanna post a correction for this tab? Suggest correction