Oops, an error
Loading. Please wait.

I Belong To You intro tab

version 1
version 1

Intro

Whole song

3,482 views 1 this week
3 commentsread comments
1 2 3 4 5
3 more votes to show rating
add to favorites
×
Save as Personal and add changes to this tab that will be seen only by you. Learn more ›
×
You can save this tab as Personal to edit and correct it or add notes. All changes will be seen only by you. Learn more »
launch autoscroll
font size
0
reset
how to read this tab
guitar tuner
edit
Autoscroll
slow
fast
+/-
esc
set tempo
stop
Author
-----------------------------------------------------------------------------
                             I belong to you - Superchick
-----------------------------------------------------------------------------
Tabbed by: xxthatxkidxx
Email:redmerlin86@aol.com

Tuning: standard

e|----------------1---3-----------------------------------------------------|
B|-3---2------0-------------------------------------------------------------|
G|--2---0------2---2----2---------------------------------------------------|
D|---0---0---0--0---0----0--------------------------------------------------|
A|----1---3-3----3---3----3-------------------------------------------------|
E|---------0----------------------------------------------------------------|
yep... now I just gotta get the rest... fun!! if you have a question email me... God Bless Ya'll!


| /  slide up
| \  slide down
| h  hammer-on
| p  pull-off
| ~  vibrato
| +  harmonic
| x  Mute note
=============================================================================

            
            
Suggest correction
Creating personal tab
Creating personal tab
You can edit any tab online and save it as your Personal.

You can edit, replace or remove any tab part or add personal notes – all changes will be seen only by you.

Personal tabs can be accessed anytime from any device, even offline.
Learn more »
Give kudos to tab author, rate the tab!
1 2 3 4 5
comments
print report bad tab
3 comments total.
0 reply
mackennarox 21 Apr 30, 2008 06:49 PM

Dude i think its almost right
But you've tabbed it upsidedown!
:D

0 reply
xxthatXkidxx 36 Jun 05, 2008 02:24 PM

HOLLY CRAP!!! I'm REALLY SORRY!!!! This was NOT meant to be upside down!!! lol!

0 reply
singr4God 41 Oct 19, 2008 06:25 PM

hey it's totally ok great tab by the way ttly awesome thnz... luv this song

guest
You may want to rate the tab now too:
select rating
Wanna post a correction for this tab? Suggest correction