Oops, an error
Loading. Please wait.

Piloto Automatico Ukulele Chords

7 views 1 this week
no commentswrite comment
1 2 3 4 5
3 more votes to show rating
add to favorites
launch autoscroll
font size
0
reset
transpose
0
reset
simplify chords
display chords
guitar tuner
Autoscroll
slow
fast
+/-
esc
set tempo
stop
Help us to improve Ultimate-Guitar.com Take our survey!
×
Author
Tom: G


[Parte 1] (3x)

   Em                     Bm
E|----------------------------------------------|
B|----------------------------------------------|
G|----------------------------------------------|
D|----------------------------------------------|
A|-------10-------10-------10----5-----5-----5--|
E|-10/12----12-12----12-12-----7---7-7---7-7----|


[Parte 2]

   C7M
E|------------------------------------------|
B|------------------------------------------|
G|------------------------------------------|
D|---------9-----9-----9-----9--------------|
A|---7-------7-----7-----7-----7------------|
E|-8---8-8-----8-----8-----8-----8----------|


[Parte 1] (3x)

   Em                     Bm
E|----------------------------------------------|
B|----------------------------------------------|
G|----------------------------------------------|
D|----------------------------------------------|
A|-------10-------10-------10----5-----5-----5--|
E|-10/12----12-12----12-12-----7---7-7---7-7----|


[Parte 2]

   C7M
E|------------------------------------------|
B|------------------------------------------|
G|------------------------------------------|
D|---------9-----9-----9-----9--------------|
A|---7-------7-----7-----7-----7------------|
E|-8---8-8-----8-----8-----8-----8----------|


[Parte 3]

   A9               C6
E|------------------------------------------|
B|------------------------------------------|
G|------------------------------------------|
D|---9----9---9---9--------7---7------------|
A|---7----7---7---7----7-----------7--------|
E|-5----5---5---5----8---8---8---8----------|


[Verse]

                  Em            G/B
Eu nunca fiz questão de estar aqui
       Em           G/B
Muito menos participar
        Em                G/B  C7M
E ainda acho que o meu cotidiano

Vai me largar

    Em            G/B
Um dia eu vou morrer
    Em           G/B
Um dia eu chego lá
      Em              G/B      C7M
E eu sei que o piloto automático
          A9  C7M
Vai me levar


[Chorus]

                 C7M
Eu devia sorrir mais

Abraçar meus pais
          G              D
Viajar o mundo e socializar
            C7M
Nunca reclamar

Só agradecer
            G                   D
Tudo o que vier eu fiz por merecer

                 C7M
Eu devia sorrir mais

Abraçar meus pais
          G              D
Viajar o mundo e socializar
            C7M
Nunca reclamar

Só agradecer
            G
Fácil de falar, difícil fazer

(Em  G/B) 3x  C7M


[Verse 2]

            Em                G/B
Quase toda vez que eu vou dormir
        Em       G/B
Não consigo relaxar
       Em             G/B         C7M
Até parece que meus travesseiros pesam
           A9  C7M
Uma tonelada


[Chorus]

                 C7M
Eu devia sorrir mais

Abraçar meus pais
          G              D
Viajar o mundo e socializar
            C7M
Nunca reclamar

Só agradecer
            G                   D
Tudo o que vier eu fiz por merecer

                 C7M
Eu devia sorrir mais

Abraçar meus pais
          G              D
Viajar o mundo e socializar
            C7M
Nunca reclamar

Só agradecer
            G              D
Fácil de falar, difícil fazer

                 C7M
Eu devia sorrir mais

Abraçar meus pais
          G             D
Viajar o mundo e socializar
            C7M
Nunca reclamar

Só agradecer
            G              B
Fácil de falar, difícil fazer


[Outro Verse]

Eu nunca fiz questão de existir

Não queria incomodar

Um dia eu acho um jeito de aparecer
          G
E você notar
        C7M
Você notar
        Em  B7/D#  C7M
Você notar
Suggest correction
Give kudos to tab author, rate the tab!
1 2 3 4 5
comments
print report bad tab
guest
You may want to rate the tab now too:
select rating
Wanna post a correction for this tab? Suggest correction