Oops, an error
Loading. Please wait.

Who Sucked Out The Feeling Bass

version 1
version 1

Whole song

2,017 views 3 this week
2 commentsread comments
1 2 3 4 5
1 last vote to show rating
add to favorites
×
Save as Personal and add changes to this tab that will be seen only by you. Learn more ›
×
You can save this tab as Personal to edit and correct it or add notes. All changes will be seen only by you. Learn more »
save as personal
new!
launch autoscroll
font size
0
reset
guitar tuner
Autoscroll
slow
fast
+/-
esc
set tempo
stop
Who Sucked Out the Feeling - complete tab
by Alex Huth

m - mute after play...


Verse:
G|----------------------------------------------------
D|----------------------------------------------------
A|--------2-2-2-2-4-4-4-4---------0-0-0-0-------------
E|0-0-0-0-----------------4-4-4-4---------4-4-4-4-2-2-

G|----------------------------------------------------
D|----------------------------------------------------
A|----------------------------------------------------
E|2-2-2-2-2-2-----------------------------------------


Bridge:
G|----------------------------------------------------
D|----------------------------------------------------
A|4m-4m-4m-4m-------------4m-4m-4m-4m-----------------
E|------------4m-4m-4m-4m-------------4m-4m-4m-4m-2m--

G|----------------------------------------------------
D|----------------------------------------------------
A|----------2m-2m-2m-2m-------------2m-2m-2m-2m-------
E|-2m-2m-2m-------------2m-2m-2m-2m-------------------


Chorus:
G|-2---2-1---1------------4---2---2-1---1------------4
D|------------4---4-2-1-2----------------4---4-2-1-2--
A|----------------------------------------------------
E|----------------------------------------------------

-or- (I find this a bit easier, if further down)
G|----------------------------------------------------
D|-7---7-6---6------------9---7---7-6---6------------9
A|------------9---9-7-6-7----------------9---9-7-6-7--
E|----------------------------------------------------


And thats it!! Have fun...
Suggest correction
Give kudos to tab author, rate the tab!
1 2 3 4 5
comments
print report bad tab
2 comments total.
0 reply
joshrich 10 Nov 27, 2007 07:15 PM

This is almost perfect, except the verse actually goes:

Verse:
G|-----
D|-----
A|-----2-2-2-2-4-4-4-4--- --0-0-0-0-----2-2-
E|0-0-0-0-----4-4-4-4-----0-0-0-0-----

G|-----
D|-----
A|2-2-2-2-2-2-----
E|-----

+1 reply
joshrich 10 Nov 27, 2007 07:17 PM

*sigh* that didn't come out the way it looked on screen, but no matter. At the end of the verse replace the G# (4) and
with an open E (0) and the F# (2) with a B (2 on the 3rd string)

guest
Wanna post a correction for this tab? Suggest correction