Oops, an error
Loading. Please wait.

Right On Satellite tab

587 views 9 this week
no commentswrite comment
1 2 3 4 5
x 3
add to favorites
×
Save as Personal and add changes to this tab that will be seen only by you. Learn more ›
×
You can save this tab as Personal to edit and correct it or add notes. All changes will be seen only by you. Learn more »
launch autoscroll
font size
0
reset
how to read this tab
guitar tuner
edit
Autoscroll
slow
fast
+/-
esc
set tempo
stop
Author
Difficulty
-------------------------------------------------------------------------------
                     Right On Satellite - Superfood
-------------------------------------------------------------------------------
Tabbed by: Rory H
E-mail: rdeh10@googlemail.com

Tuning: EADGBe

Just thought I'd tab this in full, as the only other version of this great song is chords, and it's so 
much fun to play! Enjoy! If there are any corrections or improvements, please leave a comment or send
me an email and I'll try to fix it as soon as I can :)

Intro Part 1:
Guitar 1:
e|--------------------------|    
B|---3--3-2-----2h3p2-0-----|
G|----------0-----------2p0-| x4
D|--2-----------------------|
A|-0---0-0-----0------------|
E|--------------------------|

Guitar 2:
e|-5-5-5--------5-5-5-|
B|-5-5-5--------5-5-5-|
G|-6-6-6--------6-6-6-|
D|-7-7-7--------7-7-7-|
A|-7-7-7--------7-7-7-|
E|-5-5-5--------5-5-5-|



Intro Part 2:
Guitar 1:
e|--------------------------|    |--------------------| |
B|---3--3-2-----2h3p2-0-----|    |---5---------5------| |
G|----------0-----------2p0-| x3 |-4---4-----4---4----| | all x2
D|--2-----------------------|    |-------5---------5--| |
A|-0---0-0-----0------------|    |--------------------| |
E|--------------------------|    |--------------------| |

Guitar 2:
e|------------------------------------------|    |------------------|
B|-------15--15--14-14----14h15p14-12-------|    |---17--17--17-----|
G|------------------------------------14-12-| x3 |-16--16--16--16---|
D|-12/14---14--14-------14------------------|    |---------------17-|
A|------------------------------------------|    |------------------|
E|------------------------------------------|    |------------------|


Verse:
Guitar 1:
e|----------------xx------------------------------------------|
B|--3----2-2-2----xx--14--12----12-12-12-12---5---------5-----|
G|--2----2-2-2----xx--14--12----12-12-12-12-4---4-----4---4---|
D|--0----2-2-2----xx--14--12----12-12-12-12-------5---------5-|
A|--0----0-0-0----xx--12--10----10-10-10-10-------------------|
E|----------------xx------------------------------------------|
 |
 |Guitar 2:
e|------------------------------------------------------------|
B|--------------------------------------------17--17--17------|
G|------------------------------------------16--16--16--16----|
D|--------------------------------------------------------17--|
A|------------------------------------------------------------|
E|------------------------------------------------------------|

Guitar 1:
e|----------------xx------------------------------------------|
B|--2----2-2-3----xx--14--12----12-12-12-12---5---------5-----|
G|--2----2-2-2----xx--14--12----12-12-12-12-4---4-----4---4---|
D|--2----2-2-0----xx--14--12----12-12-12-12-------5---------5-|
A|--0----0-0-0----xx--12--10----10-10-10-10-------------------|
E|----------------xx------------------------------------------|
 |
 |Guitar 2:
e|------------------------------------------------------------|
B|--------------------------------------------17--17--17------|
G|------------------------------------------16--16--16--16----|
D|--------------------------------------------------------17--|
A|------------------------------------------------------------|
E|------------------------------------------------------------|


Pre-Chorus:
Guitar 1 (Really not sure about that middle chord):
e|-------------------------------|
B|-1-----------------8---------6-|
G|-2-----------------7---------5-|
D|-3-----------------0---------7-|
A|-3---------------------------5-|
E|-1-----------------------------|

Guitar 2:
e|-------------------------------|
B|-3-------3/5-------6----8----6-|
G|-2-------2/4-------7----9----5-|
D|-----------------------------0-|
A|-------------------------------|
E|-------------------------------|


Chorus:
Guitar 1 (You'll pick up the strumming pattern easily here):
e|---------------------------|
B|-5----5----6----1----3--3--|
G|-7----6----7----2----5--4--| x2
D|-7----7----7----3----5--5--|
A|-5----7----5----3----5--5--|
E|------5---------1----3--3--|

Guitar 2 (Fairly hard to hear, but just mess around with this :)):
e|-----------------------10---------------------------|
B|-15----14--14----------10----------13--12--12-------|
G|-14----14-----14-------10----13----12--12-----12----| x2
D|-12----11--------14----10----14----10---9--------12-|
A|-12--------------------12----14---------------------|
E|-----------------------10----11---------------------|


Repeat Intro pt 2 for guitar 1, and come in on third bar for guitar 2
Repeat Verse


Pre-chorus + bridge:
Guitar 1:
e|-------------------------------------------------------8--7-|
B|-1-----------------8---------6--------5--------6-------6--6-|
G|-2-----------------7---------5--------5--------5-------5--5-|
D|-3-----------------0---------7--------5--------7-------7--7-|
A|-3---------------------------5--------3--------5------------|
E|-1----------------------------------------------------------|

Guitar 2:
e|------------------------------------------------------------|
B|-3-------3/5-------6----8----6------------------------------|
G|-2-------2/4-------7----9----5------------------------------|
D|-----------------------------0------------------------------|
A|------------------------------------------------------------|
E|------------------------------------------------------------|


Repeat Chorus


Final Chorus/Outro:
Guitar 1:
e|---------------------------|                   |---|
B|-5----5----6----1----3--3--|                   |-5-|
G|-7----6----7----2----5--4--| x2 then finish on |-7-| (I think!)
D|-7----7----7----3----5--5--|                   |-7-|
A|-5----7----5----3----5--5--|                   |-5-|
E|------5---------1----3--3--|                   |---|

e|----------------------------------------------|                   |---|
B|-----8-----------------------8----------------|                   |-8-|
G|---9----9--------9---------9----9--------9----| x2 then finish on |-9-|
D|-7-----------0-7----7----7-----------0-7----7-|                   |---|
A|----------------------------------------------|                   |---|
E|----------------------------------------------|                   |---|


************************************

| /   slide up
| \   slide down
| h   hammer-on
| p   pull-off
| ~   vibrato
| +   harmonic
| x   Mute note
| b   Bend
| pb  Pre-bend
| br  Bend release
| pbr Pre-bend release
| brb Bend release bend

************************************

            
            
Suggest correction
Creating personal tab
Creating personal tab
You can edit any tab online and save it as your Personal.

You can edit, replace or remove any tab part or add personal notes – all changes will be seen only by you.

Personal tabs can be accessed anytime from any device, even offline.
Learn more »
Give kudos to tab author, rate the tab!
1 2 3 4 5
comments
print report bad tab
guest
You may want to rate the tab now too:
select rating
Wanna post a correction for this tab? Suggest correction