Oops, an error
Loading. Please wait.

Late In The Day Bass Tab

1,529 views 3 this week
no commentswrite comment
1 2 3 4 5
please rate
add to favorites
launch autoscroll
font size
0
reset
guitar tuner
Autoscroll
slow
fast
+/-
esc
set tempo
stop
Help us to improve Ultimate-Guitar.com Take our survey!
×
Author
Difficulty
novice
Verse 1 & 2: only guitar

Bass starts on 1st chorus:

E-5~~~~---5-5-5-5-5-5------------------7-7-7-7-7-7-7-7----------------------|
A----------------------8-7-8-7-8-7-8-9-----------------10-10-10-10-10-10----|
D---------------------------------------------------------------------------|
G---------------------------------------------------------------------------|


E-5~~~~---5-5-5-5-5-5------------------7-7-7-7-7-7-7-7-7-7-7-7-7-7-7-7-7----|
A----------------------8-7-8-7-8-7-8-9--------------------------------------|
D---------------------------------------------------------------------------|
G---------------------------------------------------------------------------|

E-------------------------------------|
A-3-3-5-5-7-7-8-8--4-4-5-5-7-7-8~-----|
D-------------------------------------|
G-------------------------------------|


Verse 3:

E-----7-----------------5-5-3/5-5----------------------5---|
A-5-5--5-5----8-8-6/8-8------------8-8-6/8-8---8----8-5----|
D------------------------------------------8----8----------|
G----------------------------------------------------------|

E-----7-----------------5-5-35-5----------------------5----|
A-5-5--5-5----8-8-6/8-8------------8-8-6/8-8---8----8-5----|
D------------------------------------------8----8----------|
G----------------------------------------------------------|

Chorus starts wiht


E-55555---5-5-5-5-5-5------------------7-7-7-7-7-7-7-7----------------------|
A----------------------8-7-8-7-8-7-8-9-----------------10-10-10-10-10-10----|
D---------------------------------------------------------------------------|
G---------------------------------------------------------------------------|

E-5~~~~---5-5-5-5-5-5------------------7-7-7-7-7-7-7-7-7-7-7-7-7-7-7-7-7----|
A----------------------8-7-8-7-8-7-8-9--------------------------------------|
D---------------------------------------------------------------------------|
G---------------------------------------------------------------------------|

E-------------------------------------|
A-3-3-5-5-7-7-8-8--4-4-5-5-7-7-8~-----|
D-------------------------------------|
G-------------------------------------|

solo 1 - keyboard

E-------------------------------------------------------------|
A-7-7-7-7-7-7-7-7-7-7-7-7-7-7-7-7---3-3-1/3-3--3-9-9-9----5-5-|
D-------------------------------------------------------------|
G-------------------------------------------------------------|

E----------12-10-9-7----------12-10-9-7-|
A-12~12-10-----------12~12-10-----------|
D---------------------------------------|
G---------------------------------------|

E-------------------------------------------------------------|
A-7-7-7-7-7-7-7-7-7-7-7-7-7-7-7-7---3-3-1/3-3--3-9-9-9----5-5-|
D-------------------------------------------------------------|
G-------------------------------------------------------------|

E----------12-10-9-7------|
A-12~12-10-----------12~~-|
D-------------------------|
G-------------------------|

solo 2 - guitar

E-----7-----------------5-5-3/5-5----------------------5---|
A-5-5--5-5----8-8-6/8-8------------8-8-6/8-8---8----8-5----|
D------------------------------------------8----8----------|
G----------------------------------------------------------|

E-----7-----------------5-5-35-5----------------------5----|
A-5-5--5-5----8-8-6/8-8------------8-8-6/8-8---8----8-5----|
D------------------------------------------8----8----------|
G----------------------------------------------------------|


Chorus until end

E-5~~~~---5-5-5-5-5-5------------------7-7-7-7-7-7-7-7----------------------|
A----------------------8-7-8-7-8-7-8-9-----------------10-10-10-10-10-10----|
D---------------------------------------------------------------------------|
G---------------------------------------------------------------------------|

E-5~~~~---5-5-5-5-5-5------------------7-7-7-7-7-7-7-7----------------------|
A----------------------8-7-8-7-8-7-8-9-----------------10-10-10-10-10-10----|
D---------------------------------------------------------------------------|
G---------------------------------------------------------------------------|

E-5~~~~---5-5-5-5-5-5------------------7-7-7-7-7-7-7-7----------------------|
A----------------------8-7-8-7-8-7-8-9-----------------10-10-10-10-10-10----|
D---------------------------------------------------------------------------|
G---------------------------------------------------------------------------|

E-5~~~~---5-5-5-5-5-5------------------7-7-7-7-7-7-7-7-7-7-7-7-7-7-7-7-7----|
A----------------------8-7-8-7-8-7-8-9--------------------------------------|
D---------------------------------------------------------------------------|
G---------------------------------------------------------------------------|

E--------------------------------------|
A-3-3-5-5-7-7-8-8--4-4-5-5-7-7-8---5~~-|
D--------------------------------------|
G--------------------------------------|
Suggest correction
Give kudos to tab author, rate the tab!
1 2 3 4 5
comments
print report bad tab
guest
You may want to rate the tab now too:
select rating
Wanna post a correction for this tab? Suggest correction