Oops, an error
Loading. Please wait.

St Petersburg chords

version 2
version 2

Whole song

5,273 views 3 this week
1 commentread comment
1 2 3 4 5
1 last vote to show rating
add to favorites
×
Save as Personal and add changes to this tab that will be seen only by you. Learn more ›
×
You can save this tab as Personal to edit and correct it or add notes. All changes will be seen only by you. Learn more »
launch autoscroll
font size
0
reset
transpose
0
reset
display chords
guitar tuner
edit
Autoscroll
slow
fast
+/-
esc
set tempo
stop
Author
Strumming
There is no strumming pattern for this song yet. and get +5 IQ
Hey. Listen to the song to get the beat. The solo is origonally played on the piano,
but sounds just as great on the guitar, and its REALLY easy to play...Good luck!

Intro: F#m E D E (x2)


VERSE 1:

F#m                                 E
Before the time of the morning sand man
D                          E
I can find my way around
F#m                                 E
Soon be here at the borderline I guess
D                          E
Armageddon coming down


CHORUS:

A
And here lies a pretty state again
D                        B
It's time to make a move on
F#m                       E
Cos in three days I'll be out of here
                       D
And it's not a day too soon


VERSE:

F#m         E
Firelight, the light of love, burns
D                          E
Turns to ashes in your hand
F#m                                 E
So to bed by the morning light I guess
D                          E
I'm awake and understand


CHORUS:

A
Set sail for St. Petersburg
D                B
Making use of my time
F#m                       E
Cos in three days I'll be out of here
                       D
And it's not a day too soon


SOLO:
E-------------------------------|
B---7-7-10-7------7-7-10-7-6-5--|
G-------------------------------|
D-------------------------------|
A-------------------------------|
E-------------------------------|

E--------------------------------|
B---7-7-10-7------7-7-10-7-5-2-0-|
G--------------------------------|
D--------------------------------|
A--------------------------------|
E--------------------------------|

E-------------------------------|
B---2-2-2-3--5-----------0-2-4--|
G--------------------2-2--------|
D-------------------------------|
A-------------------------------|
E-------------------------------|

E--2--5-4-----------------------|
B----------0---0-2--------------|
G-------------------------------|
D--------------------4----------|
A-------------------------------|
E-------------------------------|


VERSE:

F#m                       E
Head out to a better life
D                            E
I can get a job, settle down
F#m                                 E
I'm full of love, of a full of feeling
D                              E
I can't stand the here and now


CHORUS / OUTRO:

A
Leave town for pity's sake you know
D                        B
It's time to make a move on
F#m                       E
Cos in three days I'll be out of here
                       F#m
And it's not a day too soon
     F#m                 E
Yeah, three days I'll be out of here
                       D
And it's not a day too soon

(End on F#m)

            
            
Suggest correction
Creating personal tab
Creating personal tab
You can edit any tab online and save it as your Personal.

You can edit, replace or remove any tab part or add personal notes – all changes will be seen only by you.

Personal tabs can be accessed anytime from any device, even offline.
Learn more »
Give kudos to tab author, rate the tab!
1 2 3 4 5
comments
print report bad tab
1 comment total.
0 reply
charl_mc 20 Jan 06, 2006 04:38 AM

This is a tad better than the other tabs

guest
You may want to rate the tab now too:
select rating
Wanna post a correction for this tab? Suggest correction