Oops, an error
Loading. Please wait.

Sun Hits The Sky Bass Tab

2,588 views 1 this week
no commentswrite comment
1 2 3 4 5
2 more votes to show rating
add to favorites
launch autoscroll
font size
0
reset
guitar tuner
Autoscroll
slow
fast
+/-
esc
set tempo
stop
Help us to improve Ultimate-Guitar.com Take our survey!
×
Author
Difficulty
intermediate
-------------------------------------------------------------------------------
			 Sun hits the sky - Supergrass
-------------------------------------------------------------------------------

Tabbed by: superfranki

Tuning: Standard


Intro:

G |------|
D |------| x4
A |-10p8-|
E |------|

G |------|
D |------|
A |------|
E |-13\--|

Riff 1:

G |-----------------------------------------------------------------|
D |-----------------------------------------------------------------|
A |-8-8-8-8-8-------6-6-6-6-6-------8-8-8-8-8-------6-6-6-6-8-6-----|
E |-----------5-6-7-----------5-6-7-----------5-6-7-------------8-6-|

G |-----------------------------------------------------------|
D |-----------------------------------------------------------|
A |---------------3--3-3--5-5-3---------------3-3-3-2-3-2-3-2-|
E |-3--0-3--0-3-5---------------3--0-3--0-3-5-----------------|

G |---------------------------------------------------------------|
D |---------------------------------------------------------------|
A |-8-8-8-8-8-------6-6-6-6-6-------8-8-8-8-------6-6-6-6-8-6-----|
E |-----------5-6-7-----------5-6-7---------5-6-7-------------8-6-|

G |----------|
D |----------|
A |-5----0-0-|
E |----------|

Riff 2:

G |------------------------|
D |-0-0-0-0-10h12-10-12-10-|
A |------------------------|
E |------------------------|

G |-----------------|
D |-0-0-0-0-0-------|
A |-----------0-0-0-|
E |-----------------|

G |------------------------|
D |-0-0-0-0-10h12-10-12-10-| x6
A |------------------------|
E |------------------------|

Riff 3:

G |------------------------------|
D |------------------------------|
A |-8----8----8--------------5-7-|
E |---8----7----6--5-6-7-8-8-----|

Riff 4:

G |-----------------------------------------------------------------|
D |-----------------------------------------------------------------|
A |-8-8-8-8-8-------6-6-6-6-6-------8-8-8-8-8-------6-6-6-6-6-------|
E |-----------5-6-7-----------5-6-7-----------5-6-7-----------5-6-7-|

Riff 5:

G |---------------------------------------------------------------|
D |---------------------------------------------------------------|
A |-----------------------------------------------6-6-6-6-6-6-6-6-|
E |-4-4-4-4-4-4-4-4-6-6-6-6-6-6-6-6-1--0-1--0-1/4-----------------|

G |-------------------------------------------------------------|
D |-------------------------------------------------------------|
A |-------------------------------------------------------------|
E |-4--3-4--3-4-5-6-6-6-6-6-8-8-8-1--0-1--0-1-2-3-3-3-3-3-1-2-3-|

G |-------------------------------------------------------------|
D |-------------------------------------------------------------|
A |-------------------------------------------6-6-6-6-6-8-8-8---|
E |-4--3-4--3-4-5-6--5-6--5-6-5-1--0-1--0-1/4-------------------|

G |-------------------------------------------------------------|
D |-------------------------------------------------------------|
A |-------------------------------------------------------------|
E |-4--3-4--3-4-5-6--5-6--5-6-5-8-8-8-8-8-5-6-7-8-8-8-8-8-8-8-8-|

Ending:

G |-------------------------|
D |-0-0-0-0------8h10/12-12-| x8
A |---------8h10------------|
E |-------------------------|

G |---------------------------|
D |-0-0-0-0-------12h14/15-15-| x4
A |---------12h14-------------|
E |---------------------------|

Intro
Riff 1
Riff 2 x2
Riff 3
Riff 4 x2
Riff 1
Riff 2 x2
Riff 5
Riff 3
Riff 4
Riff 1
Riff 2 x2
Ending

| /  slide up
| \  slide down
| h  hammer-on
| p  pull-off
| ~  vibrato
| +  harmonic
| x  Mute note
===============================================================================
Suggest correction
Give kudos to tab author, rate the tab!
1 2 3 4 5
comments
print report bad tab
guest
You may want to rate the tab now too:
select rating
Wanna post a correction for this tab? Suggest correction