Oops, an error
Loading. Please wait.

Tales Of Endurance Tab

version 2
version 2

Whole song

2,254 views 1 this week
no commentswrite comment
1 2 3 4 5
please rate
add to favorites
launch autoscroll
font size
0
reset
how to read this tab
guitar tuner
Tab Pro tools
  • play this tab
  • loop segment
  • change instrument
  • show fretboard
  • metronome
×
Best way to learn
"Tales Of Endurance"
Autoscroll
slow
fast
+/-
esc
set tempo
stop
TALES OF ENDURANCE
SUPERGRASS
ROAD TO ROUEN, 2005 ENTERPRISE RECORDS

Hey people, I saw that there was no good tab for this song on Ultimate-Guitar, so I
to figure it out and post it on here. It's a great song, and lots of fun to play. It's
in double drop D.

Guitar One: DADGBD (Untitled)

D-----0--0---0--0-0-0-0--0-0-------0--0---0--0-0-0-0--0-0------------|
B-----1--3---3--1-1-1-3--3-3-------1--3---3--1-1-1-3--3-3------------|
G-----2--2---2--2-2-2-2--2-2-------2--2---2--2-2-2-2--2-2------------|  PLAY
D-0---0--0---0--0-0-0-0--0-0---0---0--0---0--0-0-0-0--0-0------------|  TWICE
A-0----------------------------0---------------------------3b--------|
D-0----------------------------0---------------------------3b--------|
                                             the bend is just real quick,
                                             and you don't bend it much.
D-----3-3-33-3-33-------|----5-5-55-5-55-----------------------------|
B-----5-5-55-5-55--PLAY-|----6-6-66-6-66--PLAY-----------------------|
G-----5-5-55-5-55-------|----7-7-77-7-77-----------------------------|
D-----5-5-55-5-55--TWICE|----7-7-77-7-77--TWICE----------------------|
A--3--------------------|----5-5-55-5-55-----------3b----------------|
D-----------------------|--5-----------------------3b----------------|
     That's a fast                      The bend is after the second
   strum, not 33 and 55.               time doing the G chord progression.

That's pretty much it, there's an electric guitar that come in at the end, but I'm not
how that part goes yet. I'll update the tab when I can, and if you have any questions or
you can email me at volcomrider6215@aol.com. You'll get full credit if you send any 
of the tab. Thanks!
comments
We did not receive enough feedback on this tab! Please rate:
print report bad tab
1 2 3 4 5
I want to post or [tab]
guest
You may want to rate the tab now too:
select rating
Please do not post tabs as comments. Select "correction" instead!