Oops, an error
Loading. Please wait.

Siblings tab

61 views 1 this week
no commentswrite comment
1 2 3 4 5
3 more votes to show rating
add to favorites
×
Save as Personal and add changes to this tab that will be seen only by you. Learn more ›
×
You can save this tab as Personal to edit and correct it or add notes. All changes will be seen only by you. Learn more »
launch autoscroll
font size
0
reset
how to read this tab
guitar tuner
edit
Autoscroll
slow
fast
+/-
esc
set tempo
stop
The 0s and xs are quite similar, but you'll figure it out when you listen to the song while playing it. 
The song and chords aren't too complicated, but I made the tab pretty detailed so everything is clear.
You can check out my cover on here, maybe it helps: https://youtu.be/MtJvLpzOI2U

Superheaven - Siblings

[Intro/Verse]
eb|-----|---------------------------------------------------------|------|
Bb|-----|---------------------------------------------------------|------|
Gb|-----|---------------------------------------------------------|------| 
Db|-----|--4-4--7-7---7-7--4-4-4---4---7-7---7-7-7-7--4-4-4-4-----|--x4--| 
Ab|-x-x-|--4-4--5-5-x-7-7--2-2-2-0-4-x-5-5---7-7-7-7--2-2-2-2--0--|------|
Eb|-x-x-|--2-2--5-5-x-5-5--2-2-2-0-2-x-5-5-x-5-5-5-5--2-2-2-2--0--|------|

(Guitar 2 jumps in during the second time with a slide to the 2nd fret)

[Chorus]
eb|-------------------------------------------------------------| 
Bb|-------------------------------------------------------------| 
Gb|-------------------------------------------------------------| 
Db|-7-7-7-7-7--4-4-4-4-4-4-4-4--4-4-4-4-4--7-7-7-7-7-4-4-4------|
Ab|-5-5-5-5-5--2-2-2-2-2-2-2-2--4-4-4-4-4--7-7-7-7-7-4-4-4------| 
Eb|-5-5-5-5-5--2-2-2-2-2-2-2-2--2-2-2-2-2--5-5-5-5-5-2-2-2------|

eb|-------------------------------------------------------------| 
Bb|-------------------------------------------------------------| 
Gb|-------------------------------------------------------------| 
Db|-7-7-7-7-7--4-4-4-4-4-4-4-4---7-7-7-7-7-7-7-7-7-7-7-7-7-7-7--|
Ab|-5-5-5-5-5--2-2-2-2-2-2-2-2---7-7-7-7-7-7-7-7-7-7-7-7-7-7-7--| 
Eb|-5-5-5-5-5--2-2-2-2-2-2-2-2---5-5-5-5-5-5-5-5-5-5-5-5-5-5-5--|

[Bridge]
(Guitar 1)
eb|----------------------------------------------------| 
Bb|----------------------------------------------------| 
Gb|----------------------------------------------------| 
Db|---4-4--7-7---7-7--4-4-4---4---7-7---7-7-7-7--4-----|
Ab|---4-4--5-5-x-7-7--2-2-2-0-4-x-5-5---7-7-7-7--2-----| 
Eb|---2-2--5-5-x-5-5--2-2-2-0-2-x-5-5-x-5-5-5-5--2-----|

(Guitar 2)
eb|----------------------------------------------------| 
Bb|----------------------------------------------------| 
Gb|----------------------------------------------------| 
Db|-2/4-4------2/4-4-4-2------2/4-4--------------------| 
Ab|-------2h4~-----------------------2h4~-2-0----------| 
Eb|----------------------------------------------------|

[Verse]
eb|-------------------------------------------------------------------------| 
Bb|-------------------------------------------------------------------------| 
Gb|-------------------------------------------------------------------------| 
Db|---4-4--7-7-----7-7--4-4-4----4---7-7---7-7-7-7--4-4-4-4-----------------| (x4)
Ab|---4-4--5-5--x--7-7--2-2-2-0--4-x-5-5---7-7-7-7--2-2-2-2--0--------------| 
Eb|---2-2--5-5--x--5-5--2-2-2-0--2-x-5-5-x-5-5-5-5--2-2-2-2--0--------------|

[Chorus 2]
"Brother, I can't even..."
eb|--------------------------------------------------------------| 
Bb|--------------------------------------------------------------| 
Gb|--------------------------------------------------------------| 
Db|-7-7-7-7-7--4-4-4-4-4-4-4-4--4-4-4-4-4--7-7-7-7-7-4-4-4-------|
Ab|-5-5-5-5-5--2-2-2-2-2-2-2-2--4-4-4-4-4--7-7-7-7-7-4-4-4-------| 
Eb|-5-5-5-5-5--2-2-2-2-2-2-2-2--2-2-2-2-2--5-5-5-5-5-2-2-2-------|

eb|--------------------------------------------------------------| 
Bb|--------------------------------------------------------------| 
Gb|--------------------------------------------------------------| 
Db|-7-7-7-7-7--4-4-4-4-4-4-4-4---4-4-4-4-4-4-4-4-4-4-4-4-4-4-4---|
Ab|-5-5-5-5-5--2-2-2-2-2-2-2-2---4-4-4-4-4-4-4-4-4-4-4-4-4-4-4---| 
Eb|-5-5-5-5-5--2-2-2-2-2-2-2-2---2-2-2-2-2-2-2-2-2-2-2-2-2-2-2---|

"Sister, I can't even..."
eb|-----------------------------------------------------------------| 
Bb|-----------------------------------------------------------------| 
Gb|-----------------------------------------------------------------| 
Db|-7-7-7-7-7--4-4-4-4-4-4-4-4--4-4-4-4-4--7-7-7-7-7-4-4-4----------|
Ab|-5-5-5-5-5--2-2-2-2-2-2-2-2--4-4-4-4-4--7-7-7-7-7-4-4-4----------| 
Eb|-5-5-5-5-5--2-2-2-2-2-2-2-2--2-2-2-2-2--5-5-5-5-5-2-2-2----------|

eb|-----------------------------------------------------------------|
Bb|-----------------------------------------------------------------| 
Gb|-----------------------------------------------------------------| 
Db|-7-7-7-7-7--4-4-4-4-4-4-4-4---7-7-7-7-7-7-7-7-7-7-7-7-7-7-7---4~-|
Ab|-5-5-5-5-5--2-2-2-2-2-2-2-2---7-7-7-7-7-7-7-7-7-7-7-7-7-7-7---4--| 
Eb|-5-5-5-5-5--2-2-2-2-2-2-2-2---5-5-5-5-5-5-5-5-5-5-5-5-5-5-5---2~-|

[Outro]
eb|-------|---------------------------------|----|--------| 
Bb|-------|---------------------------------|----|--------| 
Gb|-------|---------------------------------|----|--------| 
Db|-4-4---|-4-x-7-7---4-4------7-7--4-4-----|-x4-|---4~---| 
Ab|-2-2-0-|-4-x-5-5-x-2-2-x-4--5-5--2-2-0---|----|---4~---| 
Eb|-2-2-0-|-2-x-5-5-x-2—2-x-2--5-5--2-2-0---|----|---2----|


************************************

| x  Dead note
| b  Bend
| ~  Vibrato / let ring
| /  Slide
| h  Hammer on

************************************

            
            
Suggest correction
Creating personal tab
Creating personal tab
You can edit any tab online and save it as your Personal.

You can edit, replace or remove any tab part or add personal notes – all changes will be seen only by you.

Personal tabs can be accessed anytime from any device, even offline.
Learn more »
Give kudos to tab author, rate the tab!
1 2 3 4 5
comments
print report bad tab
guest
You may want to rate the tab now too:
select rating
Wanna post a correction for this tab? Suggest correction