Oops, an error
Loading. Please wait.

Youngest Daughter tab

1,573 views 24 this week
no commentswrite comment
1 2 3 4 5
x 3
add to favorites
×
Save as Personal and add changes to this tab that will be seen only by you. Learn more ›
×
You can save this tab as Personal to edit and correct it or add notes. All changes will be seen only by you. Learn more »
launch autoscroll
font size
0
reset
how to read this tab
guitar tuner
edit
Autoscroll
slow
fast
+/-
esc
set tempo
stop
The chords are often strummed multiple times. Listen to the song for the rhythm.
You can also watch my cover on here, maybe it helps: https://youtu.be/wUzcXRJCO6w?t=11s

Superheaven - Youngest Daughter 

[Intro]

eb|-----------------------------------------| 
Bb|-----------------------------------------| 
Gb|-----------------------------------------| 
Db|-13-13---13-13---13-13------9----6--x----| 
Ab|-11-11---11-11---11-11----7-7--4-4--x----| 
Eb|-9--0----9--0----9--0-----5-5--2-2--x----|

eb|------------------------------------------| 
Bb|------------------------------------------| 
Gb|------------------------------------------| 
Db|-13-13---13-13---13-13-----9----6---------| x2
Ab|-11-11---11-11---11-11---7-7--4-4---------| 
Eb|-9--0----9--0----9--0----5-5--2-2---------|


[1st Verse] 

(“It’s useless...")
eb|-----------------------------------------------------------------| 
Bb|-----------------------------------------------------------------| 
Gb|-----------------------------------------------------------------| 
Db|--9----13-13---13-13---9---13-13--13-13---9--6-------------------| 
Ab|--7----11-11---11—11---7---11-11--11-11---7--4-------------------| 
Eb|--5----9--0----9---0--—5---9--0---9--0----5--2-------------------|


[Chorus] 

("Breathe until your lungs fail...")
eb|--------------|----|--------------------------| 
Bb|--------------|----|--------------------------| 
Gb|--9-----------|----|-9------------------------| 
Db|--9--6--6—-9—-|-x3-|-9---6---9-9-9-9-9-9------| 
Ab|--7--4--4--7--|----|-7---4---7-7-7-7-7-7------| 
Eb|--7--4--2--5--|----|-7---4---5-5-5-5-5-5------|
note: play e and b string after some chords during the chorus to get the sound from the song

eb|------------------------------------------| 
Bb|------------------------------------------| 
Gb|------------------------------------------| 
Db|-13-13---13-13---13-13-----9----6---------|
Ab|-11-11---11-11---11-11---7-7--4-4---------| 
Eb|-9--0----9--0----9--0----5-5--2-2---------|


[2nd Verse] 

("I am sick...")
eb|----------------------------------------------------------------| 
Bb|----------------------------------------------------------------| 
Gb|----------------------------------------------------------------| 
Db|-13-13-13-13----13-13-13-13-----9-9-9-9-9----6-6-6-6-6-6-6-6----| x4
Ab|-11-11-11-11----11-11-11-11-----7-7-7-7-7----4-4-4-4-4-4-4-4----| 
Eb|-9--9--9--9-----0--0--0--0------5-5-5-5-5----2-2-2-2-2-2-2-2----|


“Please come home”… (palm muted)
eb|---------------------------------------------------------------------------| 
Bb|---------------------------------------------------------------------------| 
Gb|---------------------------------------------------------------------------| 
Db|--13-13-13-----------------------------------------------------------------| 
Ab|------------11-11-11---------11-11-11-11-11-11-11-11-----------------------| 
Eb|----------------------9-9-9------------------------------------------------|

eb|---------------------------------------------------------------------------| 
Bb|---------------------------------------------------------------------------| 
Gb|---------------------------------------------------------------------------| 
Db|--13-13-13-----------------------------------------------------------------| 
Ab|------------11-11-11---------11-11-11-11-----------------------------------| 
Eb|----------------------9-9-9--------------0-0-0-----------------------------|

eb|---------------------------------------------------------------------------| 
Bb|---------------------------------------------------------------------------| 
Gb|---------------------------------------------------------------------------| 
Db|--13-13-13-----------------------------------------------------------------| 
Ab|------------11-11-11---------11-11-11-11-11-11-11-11-----------------------| 
Eb|----------------------9-9-9------------------------------------------------|

eb|---------------------------------------------------------------------------| 
Bb|---------------------------------------------------------------------------| 
Gb|---------------------------------------------------------------------------| 
Db|--9-9-9--11-11-11--*9-9-9--11-11-11----9-9-11-9---------------------------|
Ab|---------------------------------------------------------------------------| 
Eb|---------------------------------------------------------------------------|
 x2
 *second time playing: stop palm-muting here


[Interlude] (clean)

eb|-------------------------------|------------------| 
Bb|-------------------------------|------------------| 
Gb|--9-------------9--------------|-9----------------| 
Db|--9--6--6--9----9--6--6--9--x--|-9--6--6--9----x4-| 
Ab|--7--4--4--7----7--4--4--7--x--|-7--4--4—-7-------| 
E|b--7--4--2--5----7--4--2--5--x--|-7--4--2--5-------|

during 4th chord:
eb|-------------| 
Bb|-------------| 
Gb|-------------| 
Db|-6/9--6------|
Ab|-------------| 
Eb|-------------|


[Outro]

eb|-----------------------------------| 
Bb|-----------------------------------| 
Gb|-----------------------------------| 
Db|-13-13---13--13---13-13----9--6----| 
Ab|-11-11---11--11---11-11----7--4----| 
Eb|-9--0----9---0----9--0-----5--2----|



************************************

| x  Dead note
| b  Bend
| ~  Vibrato
| /  Slide

************************************

            
            
Suggest correction
Creating personal tab
Creating personal tab
You can edit any tab online and save it as your Personal.

You can edit, replace or remove any tab part or add personal notes – all changes will be seen only by you.

Personal tabs can be accessed anytime from any device, even offline.
Learn more »
Give kudos to tab author, rate the tab!
1 2 3 4 5
comments
print report bad tab
guest
You may want to rate the tab now too:
select rating
Wanna post a correction for this tab? Suggest correction