Oops, an error
Loading. Please wait.

Chico Fatal Tab

10 views 1 this week
no commentswrite comment
1 2 3 4 5
3 more votes to show rating
add to favorites
launch autoscroll
font size
0
reset
how to read this tab
guitar tuner
Autoscroll
slow
fast
+/-
esc
set tempo
stop
Help us to improve Ultimate-Guitar.com Take our survey!
×
**********************************************************************
MODIFICACION A LA TRANSCRIPCION DE:
Rodrigo (rodrigoc28@ y Nakio Sospecha (peligro69@
**********************************************************************
Nota: esta es una corrección de las dos transcripciones de la canción
que estan en el sitio, noté que a ambas le faltaban algunas cosas, y
en especial el solo estaba un poco erróneo. Espero que les sirva.
**********************************************************************

INTRO
Base: F# | B | C# | B (x4)

F#      B  C#
Me levanto voy a la cama solar,
F#      B  C#   B
Tengo tiempo para mi crema facial,
F#      B  C#   B
Y yo quiero toda mi cara dorar,
F#      B  C#   B
Hoy mi cuerpo parece un arma letal.

F#     G#     B                C#
...aaaaaaah yo tengo un auto preparado y,
F#     G#     B            C#
Pasaré por las puertas de los boliches,
F#     G#     B           C#
Pararé con el volumen alto,
F#     G#     B             C#
Y aceleraré para sentirme bien.

Base: F# | B | C# | B (x4)

F#      B   C#
Al gimnasio de lunes a viernes voy,
F#
Y en mi espejo miro lo groso que soy,
F#      B   C#
Y yo quiero todo mi cuerpo aumentar,
F#      B   C#   B
Es mi imagen lo que más yo quiero cuidar.

F#     G#     B                C#
...aaaaaaah yo tengo un auto preparado y,
F#     G#     B            C#
Pasaré por las puertas de los boliches,
F#     G#     B           C#
Pararé con el volumen alto,
F#     G#     B             C#
Y aceleraré para sentirme bien.

F#         C#              D#          B
Yo soy un ganador, soy un chico fatal talvez,
F#        C#               D#        B
Vivo de moda y yo tengo la onda que querés.   [x2]

SOLO GUITARRA
Base: F# | C# | D# | B (x4)
e|----------------------------------|
B|--7-6-7~--6-4-6~--4-2-4~----------|
G|--------------------------3-3/6~--|
D|----------------------------------|
A|----------------------------------|
E|----------------------------------|

e|----------------------------------------------|
B|----------------------------------------------|
G|--3-------------------3~----3-4-4-3---3-------|
D|----6-4~--3-4-6~--4-6-----6---------6---6-4~--|
A|----------------------------------------------|
E|----------------------------------------------|

e|------------------6~---------------------------|
B|--7-----9~--7---------7-----9~--7-6-7--6-------|
G|----6-6-------6-6-------6-6--------------8-6~--|
D|-----------------------------------------------| (x2)
A|-----------------------------------------------|
E|-----------------------------------------------|

F#         C#              D#          B
Yo soy un ganador, soy un chico fatal talvez,
F#        C#               D#        B         (Esta parte va con PM)
Vivo de moda y yo tengo la onda que querés.    /

F#         C#              D#          B
Yo soy un ganador, soy un chico fatal talvez,
F#        C#               D#        B
Vivo de moda y yo tengo la onda que querés.   [x3]
Suggest correction
Give kudos to tab author, rate the tab!
1 2 3 4 5
comments
print report bad tab
guest
You may want to rate the tab now too:
select rating
Wanna post a correction for this tab? Suggest correction