Oops, an error
Loading. Please wait.

El Metido Tab

27 views 1 this week
no commentswrite comment
1 2 3 4 5
3 more votes to show rating
add to favorites
launch autoscroll
font size
0
reset
how to read this tab
guitar tuner
Autoscroll
slow
fast
+/-
esc
set tempo
stop
Help us to improve Ultimate-Guitar.com Take our survey!
×
INTRO
Base: D | B | E | G (x2)
e|--------------------------------|
B|--------------------------------|
G|--9-9-7~--9-9-7~--7-9-7-6-6-4~--|
D|--------------------------------|
A|--------------------------------|
E|--------------------------------|

e|--------------------------------------------------|
B|----------------------------7-8-7-----8-7---8-7~--|
G|--6-6-4-6-7-9-9-7~--9-9-7-9-------7~------7-------|
D|--------------------------------------------------| (x2)
A|--------------------------------------------------|
E|--------------------------------------------------|

(P.M.)
D                   B
Soy la típica persona,
E                     G
Que le llama la atención,
D                   B
La conversación ajena,
E                 G
Que sucede alrededor.

D     A     B            G
Me metí y me vuelvo a meter,
      D A         G
Nada me puedo perder.
D     A     B            G
Me metí y me vuelvo a meter,
      D A         G
Nada me puedo perder.

(P.M.)
D                       B
Lo que observo lo comento,
E                          G
Y miro el plato de otra mesa,
D                          B
Leo el diario del de al lado,
E                        G
Aunque a mi no me interesa.

D     A     B            G
Me metí y me vuelvo a meter,
      D A         G
Nada me puedo perder.
D     A     B            G
Me metí y me vuelvo a meter,
      D A         G
Nada me puedo perder.

B          G            D             G
Las reuniones de consorcio no me pierdo,
B       G          D              G
Cuando veo un accidente yo me quedo,
B        G            D              G
Siempre miro los programas de chimentos,
B      G           D                 G
Los rumores de mi barrio yo los cuento.

SOLO
Base: B | G | D | G (x4)
e|---------------|----------------------|--------2------|--------2--------|
B|---------------|--------------3-5-3~--|--5-3-5---5-3--|--5-3-5---5-5-3--|
G|---------------|------2-4-2-4---------|---------------|-----------------|
D|--2-0-2-4-2-0--|--2-4-----------------|---------------|-----------------|
A|---------------|----------------------|---------------|-----------------|
E|---------------|----------------------|---------------|-----------------|
                                  ½  ½
e|--------5-7-5--|--7-5--------|--7^-7^-10-7----7~--|--7^-7^-7-5----------|
B|--7-5-7--------|------7-5-3--|-------------10-----|------------7-5-3----|
G|---------------|-------------|--------------------|---------------------|
D|---------------|-------------|--------------------|---------------------|
A|---------------|-------------|--------------------|---------------------|
E|---------------|-------------|--------------------|---------------------|

D     A     B            G
Me metí y me vuelvo a meter,
B        A        G
Nada me, nada me, puedo perder, puedo perder.
D     A     B            G
Me metí y me vuelvo a meter,
B        A        G
Nada me, nada me, puedo perder, puedo perder.

Base: (D | B | A | G) (x4) (D | A | B | G | B | A | G)
Suggest correction
Give kudos to tab author, rate the tab!
1 2 3 4 5
comments
print report bad tab
guest
You may want to rate the tab now too:
select rating
Wanna post a correction for this tab? Suggest correction