Oops, an error
Loading. Please wait.

El Suegro Tab

version 2
version 2

Whole song

11 views 1 this week
no commentswrite comment
1 2 3 4 5
3 more votes to show rating
add to favorites
launch autoscroll
font size
0
reset
how to read this tab
guitar tuner
Autoscroll
slow
fast
+/-
esc
set tempo
stop
Help us to improve Ultimate-Guitar.com Take our survey!
×
Nota: modifico la version de Javi porque me parece equívoca en algunos
lugares, y agrego el punteo inicial. Cuando pueda agrego el solo.
Todo en quintas.
**********************************************************************

INTRO
Base: E-E                  D-D
e|----------------------|----------------------|
B|--10-9-7-9-------7----|--10-9-7-9-------7----|
G|-----------9~--9---9--|-----------9~--9---9--|
D|----------------------|----------------------|
A|----------------------|----------------------|
E|----------------------|----------------------|
   C#-C#                 B
e|----------------------------------|
B|--10-9-7-9----10-9-7-7-------7----|
G|-----------9~----------9~--9---9--|
D|----------------------------------|
A|----------------------------------|
E|----------------------------------|
    E                      D
e|----------------------|----------------------|
B|--10-9-7-9-------7----|--10-9-7-9-------7----|
G|-----------9~--9---9--|-----------9~--9---9--|
D|----------------------|----------------------|
A|----------------------|----------------------|
E|----------------------|----------------------|
    C#                   B
e|---------------------------|
B|--10-9-7-9----10-9-7-7-----|
G|-----------9~----------9~--|
D|---------------------------|
A|---------------------------|
E|---------------------------|

E                       D                     C#                    B
Ya no me puedo esconder, lo tengo que conocer, el domingo al mediodía.
E                     D                 C#                   B
Ya no lo puedo evitar y tengo que soportar sus anécdotas de vida.
E       D           C#    B
Y así...me inquieta su mirar.
E       D        C#   B
Y así...él me sofoca más.
F#     A       Em
¿A qué te dedicas?
F#       A             Em
¿Qué es lo que vas a hacer?
F#        A            Em
¿En donde es que estudias?
Em              D   E
¡Basta de interrogatorios! ¡Le imploro!

[REPITE INTRO]

E                       D                       C#                   B
Que cuando estaba Perón, que los jóvenes de hoy, fútbol era el de antes.
E       D         C#    B
Y así...yo no respondo más.
Y así...le voy a contestar.
F#      A      Em
Me drogo y además,
No quiero trabajar,
Yo tomo hasta acabar,
                  A  Em   F#  A Em
Soy borracho empedernido, mi vicio.

SOLO
Base: E | D | C# | B (x4)
Suggest correction
Give kudos to tab author, rate the tab!
1 2 3 4 5
comments
print report bad tab
guest
You may want to rate the tab now too:
select rating
Wanna post a correction for this tab? Suggest correction