Oops, an error
Loading. Please wait.

Santa Teresita Tab

7 views 1 this week
no commentswrite comment
1 2 3 4 5
3 more votes to show rating
add to favorites
launch autoscroll
font size
0
reset
how to read this tab
guitar tuner
Autoscroll
slow
fast
+/-
esc
set tempo
stop
Help us to improve Ultimate-Guitar.com Take our survey!
×
**********************************************************************
Nota: Vamos con una que veo que al menos una persona pidió.
Agregué el solo que saqué, puede que tenga algún error pero es algo.
Nuevamente todo en quintas.
**********************************************************************

INTRO
D# | G# | C | A# (x3)

D#         G#          C        A#
Todos los chicos se fueron a Brazil,
De mochilero al sur no me pude ir,
Lo de Uritorco no se me pudo dar,
Y con mis viejos me voy a veranear.

           D#          A#        G#
Por eso voy siempre al mismo lugar,
                   D#       A#        G#
A Santa Teresita voy, quiero ver el mar. (x2)

Base: D# | G# | C | A# (x2)

D#         G#          C        A#
Me llevo un sweater por si va a refrescar,
Compré un colgante en la feria artesanal,
Tengo que ver un mimo en la peatonal,
Por que en febrero nadie tiene mi edad.

           D#          A#        G#
Por eso voy siempre al mismo lugar,
                   D#       A#        G#
A Santa Teresita voy, quiero ver el mar. (x2)

C                         G# + Arreglo 1
Mis abuelos me prestan la casa,
C                         G# + Arreglo 1
Pero queda lejos de la playa,
C                         G#
Hago puerta en los videojuegos,
G#                   D#      C#              G#
Cuando hay bandera roja nunca me meto en el mar,
D#         C#                G#
Alfajores llevo para un familiar.

Arreglo 1:
e|-----------------|
B|------4-6-4------|
G|--5-7-------7-5--|
D|-----------------|
A|-----------------|
E|-----------------|

SOLO
e|----------------------|---------------------|----------------------|
B|------3-4-6-4-3-------|---------------------|------3-4-6-4-3-------|
G|--3-5-----------5--3--|--3h5-3---3h5-3---3--|--3-5-----------5--3--|
D|----------------------|--------6-------6----|----------------------|
A|----------------------|---------------------|----------------------|
E|----------------------|---------------------|----------------------|

e|-------------------|---------------------------------|
B|-------------------|---------------------------------|
G|----3-5-3----------|----------------------------3-5--|
D|--6-------6-5-3----|----5-3-5-----5-3-5---6-3-6------|
A|----------------6--|--3-------6-3-------6------------|
E|-------------------|---------------------------------|

e|----------------------------------------------|
B|----------------------------------------------|
G|----------------------------------------------|
D|----5-3-5-3------5-3-5-3----------------------|
A|--3---------6--3---------6-3-3---3-5-6-5-3----|
E|-------------------------------6-----------6--|

e|----------------------------------------------|
B|---------------------------------3-4-3--------|
G|---------------------------5-3-5-------5-3----|
D|----5-3-5-3------5-3-5-3----------------------|
A|--3---------6--3---------6--------------------|
E|----------------------------------------------|

SOLO TECLADO
Base: D# | C# | G# (x2)

           D#                    G#
Por eso voy siempre al mismo lugar,
                   D#       A#        G#
A Santa Teresita voy, quiero ver el mar.

           D#          A#        G#
Por eso voy siempre al mismo lugar,
                   D#       A#        G#
A Santa Teresita voy, quiero ver el mar. (x2)

           D#  A#  G#
Por eso voy....    [x2]
           D#
Por eso voy.
Suggest correction
Give kudos to tab author, rate the tab!
1 2 3 4 5
comments
print report bad tab
guest
You may want to rate the tab now too:
select rating
Wanna post a correction for this tab? Suggest correction