Oops, an error
Loading. Please wait.

Yo No Voy Ni Loco Tab

2 views 1 this week
no commentswrite comment
1 2 3 4 5
3 more votes to show rating
add to favorites
launch autoscroll
font size
0
reset
how to read this tab
guitar tuner
Autoscroll
slow
fast
+/-
esc
set tempo
stop
Help us to improve Ultimate-Guitar.com Take our survey!
×
**********************************************************************
Nota: una de mis favoritas de esa humorosa banda, me tomó un tiempito
sacarla entera, suena prácticamente igual. Se toca todo con quintas,
disfruten.
**********************************************************************

INTRO

Base: C       F       C       F           D
e|----------------------------------|-------------|
B|----------------------------------|--------3~~--|
G|----3-4-5-5-5-3-----3-4-5-5-3-----|--4-5-6------|
D|--5-------------5~------------5~--|-------------|
A|----------------------------------|-------------|
E|----------------------------------|-------------|
                 (x2)

Base: C       F       C       F              D
e|----------------------------------|------------------|
B|----------------------------------|--------3~-----3~-|
G|----3-4-5-5-5-3-----3-4-5-5-3-----|--4-5-6----5-6----|
D|--5-------------5~------------5~--|------------------|
A|----------------------------------|------------------|
E|----------------------------------|------------------|
                 (x2)

Base: G | C | D | G (x2)

G        C         D         G
Y al dentista yo no voy ni loco,
Si me sale una carie yo no le cuento a nadie.

          C                  G
(Yo no voy)...Yo no voy ni loco,
(Yo no voy)...Yo no voy ni loco,
                   D
Si me sale una carie...me la voy a aguantar.

Base: G | C | D | G (x2)

G             C            D           G
A mi me parecía que era un dolor de encías,
pero me pegó un susto saber que era el conducto.

               C                    G
(Hacete un buche)...Decía el dentista,
(Hacete un buche)...Decía el dentista,
                         D
El tratamiento de conducto...me lo voy a aguantar.

Base: G | C | D (x2)

G                D
Oigame señor dentista...(Oigame),
Se lo pido por favor...(Por favor),
Póngame más anestesia...(Póngame),
G                C               D
Póngame más anestesia...Qué me muero de dolor. (x2)

Base: G | C | D | G (x2)

D          G          D
Me opongo, me opongo, me opongo,
G          D          G          A
me opongo, me opongo, me opongo, a que...
                   Arreglo 1               Arreglo 1
Conmigo use ese torno, conmigo use ese torno,
                   Arreglo 2
conmigo use ese torno.

Arreglo 1:
e|--------------------------------|
B|--------------------------------|
G|--7-7-7-------2-----------------|
D|--7-7-7-5-5-5-2------------2-4--|
A|--5-5-5-5-5-5-0--0-3-4-5-5------|
E|--------3-3-3-------------------|

Arreglo 2:
e|--------------------------------------|
B|--------------------------------------|
G|--7-7-7-------2-2-5-6-2----2-2-5-6-2--|
D|--7-7-7-5-5-5-2-2-5-6-2----2-2-5-6-2--|
A|--5-5-5-5-5-5-0-0-3-4-0----0-0-3-4-0--|
E|--------3-3-3-------------------------|

A                E
Oigame señor dentista...(Oigame),
Se lo pido por favor...(Por favor),
Póngame más anestesia...(Póngame),
A                D               E
Póngame más anestesia...Qué me muero de dolor.

A        E
Duduru pa-pa...(Oigame),
Duduru pa-pa...(Por favor),
A        E               A
Duduru pa-pa...(Póngame),
D     E            A
Que me muero de dolor.

A      D       E        A
Mis colmillos voy a cepillar,
y hasta sacarle brillo yo no voy a parar. (x3)

Base: A | D | E | A (x4)
Suggest correction
Give kudos to tab author, rate the tab!
1 2 3 4 5
comments
print report bad tab
guest
You may want to rate the tab now too:
select rating
Wanna post a correction for this tab? Suggest correction