Oops, an error
Loading. Please wait.

Optimi-Ska Tab

1,192 views 1 this week
no commentswrite comment
1 2 3 4 5
3 more votes to show rating
add to favorites
launch autoscroll
font size
0
reset
how to read this tab
guitar tuner
Autoscroll
slow
fast
+/-
esc
set tempo
stop
Help us to improve Ultimate-Guitar.com Take our survey!
×
Author
Difficulty
    Superhiks 
    Optimi-ska

    Poveketo e akordi ama ima i instrumentalno. Vo I strofa se javuva II gitara i na krajot

  Voved

e|--5--5--5--5--7--7--7--7--7--7--7--7--9--9--9--9-|
B|--5--5--5--5--7--7--7--7--7--7--7--7--9--9--9--9-|
G|--6--6--6--6--7--7--7--7--7--7--7--7--9--9--9--9-|4 pati
D|--7--7--7--7--9--9--9--9--9--9--9--9-11-11-11-11-|
A|-------------------------------------------------|
E|-------------------------------------------------|

    I strofa
e|--5--5--5--5--7--7--7--7--7--7--7--7--9--9--9--9-|
B|--5--5--5--5--7--7--7--7--7--7--7--7--9--9--9--9-|
G|--6--6--6--6--7--7--7--7--7--7--7--7--9--9--9--9-|4 pati
D|--7--7--7--7--9--9--9--9--9--9--9--9-11-11-11-11-|
A|-------------------------------------------------|
E|-------------------------------------------------|
    Ej pogledni zivotot pred tebe e...

e|----------------|
B|----------------|
G|----------------|Ova se sviri samo prviot pat
D|--16-14-11------|
A|-----------12---|
E|----------------|

e|--5--5--5--5--7--7--7--7--7--7--7--7--9--9--9--9-|
B|--5--5--5--5--7--7--7--7--7--7--7--7--9--9--9--9-|
G|--6--6--6--6--7--7--7--7--7--7--7--7--9--9--9--9-|2 pati
D|--7--7--7--7--9--9--9--9--9--9--9--9-11-11-11-11-|
A|-------------------------------------------------|
E|-------------------------------------------------|

e|--4--4--4--4--4--4--4--4--7--7--7--7--7--7--7--7-|
B|--4--4--4--4--4--4--4--4--7--7--7--7--7--7--7--7-|
G|--4--4--4--4--4--4--4--4--7--7--7--7--7--7--7--7-|4 pati
D|--6--6--6--6--6--6--6--6--9--9--9--9--9--9--9--9-|
A|-------------------------------------------------|
E|-------------------------------------------------|

e|--10-12-|
B|--10-12-|
G|--11-13-|
D|--12-14-|
A|--------|
E|--------|

    II strofa
e|--5--5--5--5--7--7--7--7--7--7--7--7--9--9--9--9-|
B|--5--5--5--5--7--7--7--7--7--7--7--7--9--9--9--9-|
G|--6--6--6--6--7--7--7--7--7--7--7--7--9--9--9--9-|4 pati
D|--7--7--7--7--9--9--9--9--9--9--9--9-11-11-11-11-|
A|-------------------------------------------------|
E|-------------------------------------------------|
    Ej pogledni zivotot pred tebe e...

e|-----------------------------------------------------------|
B|-----------------------------------------------------------|
G|-----------------------------------------------------------|
D|-----11-12-11-------------------------------11-12-14-12-11-|
A|--12----------12-14-------------------12-12----------------|
E|--------------------12-12-12-14-12-14----------------------|

e|------------------------------------------|
B|------------------------------------------|
G|------------------------------------------|
D|-----11-12-11-----------14-14-16-14-10-11-|
A|--12----------12-14-----------------------|
E|--------------------12--------------------|

    
e|-------------------------------------|
B|-------------------------------------|
G|-------------------------------------|4 pati
D|--7--7--7--2--2--2--2--2--2--7--7--7-|
A|--7--7--7--2--2--2--2--2--2--7--7--7-|
E|--5--5--5--0--0--0--0--0--0--5--5--5-|

e|------------------|
B|------------------|
G|--9--9--9---------|
D|--7--7--7-7--7--7-|
A|--7--7--7-7--7--7-|
E|----------5--5--5-|

 To e to

Suggest correction
Give kudos to tab author, rate the tab!
1 2 3 4 5
comments
print report bad tab
guest
You may want to rate the tab now too:
select rating
Wanna post a correction for this tab? Suggest correction