Oops, an error
Loading. Please wait.

Never To Sit Or Stand Again tab

version 2
version 2

Whole song

31 views 1 this week
no commentswrite comment
1 2 3 4 5
3 more votes to show rating
add to favorites
×
Save as Personal and add changes to this tab that will be seen only by you. Learn more ›
×
You can save this tab as Personal to edit and correct it or add notes. All changes will be seen only by you. Learn more »
launch autoscroll
font size
0
reset
how to read this tab
guitar tuner
edit
Autoscroll
slow
fast
+/-
esc
set tempo
stop
Listen to the song to get the timing and how long to play some of the parts, I shortened them to save time.

Tuning: Once whole Step Down

[0:01]
d|---------------------------------------------------------------------------------------|
A|---------------------------------------------------------------------------------------|
F|---------------------------------------------------------------------------------------|
C|---------------------------------------------------------------------------------------| (x4)
G|-----------------5---6---7--------------------5---6---7-------------------5---6---7----|
D|--444444444444---7-0-8-0-9~----444444444444---7-0-8-0-9~----44444444444---7-0-8-0-9~---|

[0:31]
d|-----------------------------------------------------------------------|
A|-----------------------------------------------------------------------|
F|-----------------------------------------------------------------------|
C|-----------------------------------------------------------------------|
G|-----------------5---6---7---------------------------------------------|
D|--444444444444---7-0-8-0-9-----0h2p0h2p0h2p0h2p0h2p0h2p0-2-------------|

d|-----------------------------------------------------------------------|
A|-----------------------------------------------------------------------|
F|-----------------------------------------------------------------------|
C|-----------------------------------------------------------------------|
G|-----------------------------------------------------------------------|
D|--0h2p0h2p0h2p0h2p0h2p0h2p0-2---0h2p0h2p0h2p0h2p0h2p0-2----------------|

d|-----------------------------------------------------------------------|
A|-----------------------------------------------------------------------|
F|-----------------------------------------------------------------------|
C|-----------------------------------------------------------------------|
G|-----------------------------------------------------------------------|
D|--0h2p0h2p0h2p0h2p0h2p0h2p0h2p0 2---2--2-------------------------------|

[0:58]
d|-----------------------------------------------------------------------------|
A|-----------------------------------------------------------------------------|
F|-----------------------------------------------------------------------------|
C|-----------------------------------------------------------------------------|
G|-------------------5---6---5-------------------------5---6---5---------------|
D|--444444444444444--7-0-8-0-7--------444444444444444--7-0-8-0-7---------------|

d|---------------------------------------------------------------------------|
A|---------------------------------------------------------------------------|
F|---------------------------------------------------------------------------|
C|---------------------------------------------------------------------------|(x3)
G|---------------------5---6---5---------------------------------------------|
D|--44444444444444444--7-0-8-0-7----4444444444444444--12\---2-0-2-2----------|

[01:33]
d|----------------------------------------------------------------------------------|
A|----------------------------------------------------------------------------------|
F|----------------------------------------------------------------------------------|
C|----------------------------------------------------------------------------------|
G|----------------------------------------------------------------------------------|
D|---4444444444444444--0-2-0-2-2-0-2-0-2-2-0-2-0-2-2-0-2-0-2-2-0-2-0-2-2-0-2-0-2-2--|

d|---------------------------------------------------------------------------------------|
A|---------------------------------------------------------------------------------------|
F|---------------------------------------------------------------------------------------|
C|---------------------------------------------------------------------------------------|
G|-----------------------------------------------------------------10-9--7--8--7--5------|
D|--0-2-0-2-2-0-2-0-2-2-0-2-0-2-2-0-2-0-2-2-0-2-0-2-2-0-2-0-2-2----8--7--5--6--5--3------|

[01:49]
d|--------------------------------------------------|
A|--------------------------------------------------|
F|------------------------------------7-------------|
C|-----7---------7---------7--------6---------------|(x2)
G|--\6---6----\6---6----\6---6----5-----------------|
D|--------------------------------------------------|

d|--------------------------------------------------|
A|--------------------------------------------------|
F|--------------------------------------------------|
C|------------------------------------7-------------|(x5)
G|-----7---------7---------7--------6---------------|
D|--\6---6----\6---6----\6---6----5-----------------|

[02:21]
d|--------------------------------------------------------------------|
A|--------------------------------------------------------------------|
F|--------------------------------------------------------------------|
C|--------------------------------------------------------------------|(x2)
G|--8/6-6--8/7-7--8/7-7--5-5-5----8/7-7--8/7-7--8/7-7--4-4-3----------|
D|--6/5-5--6/5-5--6/5-5--3-3-3----6/5-5--6/5-5--6/5-5--2-2-1----------|

[02:41]
d|----------------------------------------------------------------------------------|
A|----------------------------------------------------------------------------------|
F|----------------------------------------------------------------------------------|
C|---------5-5-5---8-8-8------------------------5-5-5---8-8-8-----------------------|(x2)
G|--2-2-2--3-3-3---6-6-6--7/6-6/5-5/4----2-2-2--3-3-3---6-6-6----6\7-7/6-6/5--------|
D|--0-0-0-----------------5/4-4/3-3/2----0-0-0-------------------4\5-5/4-4/3--------|

[03:01]
d|---------------------------------------------------------------------------------------------|
A|---------------------------------------------------------------------------------------------|
F|---------------------------------------------------------------------------------------------|
C|------------------------------------------------------------------------------------7-6------|(x2)
G|-----7h8p7-5----7h8p7-4----7h8p7-5--4-5-6------7h8p7-5-----7h8p7-4-----7h8p7----4-5-5-4------|
D|--0-----------0----------0----------2-3-4---0-----------0-----------0-----------2-3----------|

d|---------------------------------------------------------------------------------------------|
A|---------------------------------------------------------------------------------------------|
F|---------------------------------------------------------------------------------------------|
C|------------------------------------------------------------------------------------7-6------|(x1)
G|-----7h8p7-5----7h8p7-4----7h8p7-5--4-5-6------7h8p7-5-----7h8p7-4-----7h8p7----4-5-5-4------|
D|--0-----------0----------0----------2-3-4---0-----------0-----------0-----------2-3----------|

[03:31]
d|-------------------------------------------------------------------------------------------|
A|-------------------------------------------------------------------------------------------|
F|-------------------------------------------------------------------------------------------|
C|--------7-6---------7-6---------7-6------------------7-6---------7-6--------7-6------------|(x2)
G|--2-2---5-4---2-2---5-4---2-2---5-4---5-5-6----2-2---5-4---2-2---5-4--2-2---5-4---5-5-6----|
D|--0-0---------0-0---------0-0---------3-3-4----0-0---------0-0--------0-0---------3-3-4----|

[03:51]
d|--------------------------------------------------|
A|--------------------------------------------------|
F|--------------------------------------------------|
C|------------------------------------7-------------|(x4)
G|-----7---------7---------7--------6---------------|
D|--\6---6----\6---6----\6---6----5-----------------|

[04:11]
d|-----------------------------------------------------------------------------|
A|-----------------------------------------------------------------------------|
F|-----------------------------------------------------------------------------|
C|-----------------------------------------------------------------------------|
G|-------------------5---6---5-------------------------5---6---5---------------|
D|--444444444444444--7-0-8-0-7--------444444444444444--7-0-8-0-7---------------|

d|---------------------------------------------------------------------------|
A|---------------------------------------------------------------------------|
F|---------------------------------------------------------------------------|
C|---------------------------------------------------------------------------|(x2)
G|---------------------5---6---5---------------------------------------------|
D|--44444444444444444--7-0-8-0-7----4444444444444444--12\---2-0-2-2----------|

d|-----------------------------------------------------------------------------|
A|-----------------------------------------------------------------------------|
F|-----------------------------------------------------------------------------|
C|-----------------------------------------------------------------------------|
G|-------------------5---6---5-------------------------5---6---5---------------|
D|--444444444444444--7-0-8-0-7--------444444444444444--7-0-8-0-7---------------|

d|----------------------------------------------------------------------------------|
A|----------------------------------------------------------------------------------|
F|----------------------------------------------------------------------------------|
C|----------------------------------------------------------------------------------|
G|----------------------------------------------------------------------------------|
D|---4444444444444444--0-2-0-2-2-0-2-0-2-2-0-2-0-2-2-0-2-0-2-2-0-2-0-2-2-0-2-0-2-2--|

d|---------------------------------------------------------------------------------------|
A|---------------------------------------------------------------------------------------|
F|---------------------------------------------------------------------------------------|
C|---------------------------------------------------------------------------------------|
G|-----------------------------------------------------------------10-9--7--8--7--5------|
D|--0-2-0-2-2-0-2-0-2-2-0-2-0-2-2-0-2-0-2-2-0-2-0-2-2-0-2-0-2-2----8--7--5--6--5--3------|

d|---------------------------------------------------------------------------------------|
A|---------------------------------------------------------------------------------------|
F|---------------------------------------------------------------------------------------|
C|---------------------------------------------------------------------------------------|
G|-----------------------------------------------------------------10-9--7--8--7--5------|
D|--0-2-0-2-2-0-2-0-2-2-0-2-0-2-2-0-2-0-2-2-0-2-0-2-2-0-2-0-2-2----8--7--5--6--5--3------|

d|-----------------------|
A|-----------------------|
F|-----------------------|
C|-----------------------|
G|--10-9--7--8--7--5-----|
D|--8--7--5--6--5--3-----|


************************************

| /   slide up
| \   slide down
| h   hammer-on
| p   pull-off
| ~   vibrato
| +   harmonic
| x   Mute note
| b   Bend
| pb  Pre-bend
| br  Bend release
| pbr Pre-bend release
| brb Bend release bend

************************************

            
            
Suggest correction
Creating personal tab
Creating personal tab
You can edit any tab online and save it as your Personal.

You can edit, replace or remove any tab part or add personal notes – all changes will be seen only by you.

Personal tabs can be accessed anytime from any device, even offline.
Learn more »
Give kudos to tab author, rate the tab!
1 2 3 4 5
comments
print report bad tab
guest
You may want to rate the tab now too:
select rating
Wanna post a correction for this tab? Suggest correction