Oops, an error
Loading. Please wait.

The Alcoholik Tab

version 2
version 2

Whole song

  • Note timing, song sections, made a lot easier to read.

Interactive

40 views 1 this week
no commentswrite comment
1 2 3 4 5
2 more votes to show rating
add to favorites
launch autoscroll
font size
0
reset
how to read this tab
guitar tuner
Autoscroll
slow
fast
+/-
esc
set tempo
stop
Help us to improve Ultimate-Guitar.com Take our survey!
×
Author
Difficulty
Tuning
intermediate
C# G# E B F# C#
About this tab version
Note timing, song sections, made a lot easier to read. Was this info helpful? Yes No
Superjoint Ritual - The Alcoholik

Tuning: C#F#BEG#c# (a step and half down)

Begins with an ear piercing feedback followed by pick scratch.

[Intro]
C#|--(12)----------|
G#|----------------|
E |----------------|
B |-----------\\\--|
F#|-----------\\\--|
C#|----------------|
PM

     E E E Q  E E E
C#|------------------|
G#|------------------|
E |------------------|
B |------------------| 4X
F#|------------------|
C#|--3/5\3-0--0-0-0--|
PM

[Verse 1]
     E E E Q  E E E
C#|------------------|
G#|------------------|
E |------------------|
B |------------------| 8X
F#|--5/7\5-2--2-2-2--|
C#|--3/5\3-0--0-0-0--|
PM

[Verse 2]
     E E E Q  E E E
C#|------------------|
G#|------------------|
E |------------------|
B |------------------| 14X
F#|--5/7\5-2--2-2-2--|
C#|--3/5\3-0--0-0-0--|
PM

[Interlude 1]
                                                         / 3 \
     Q+E Q+E Q+E     Q+E Q  Q      Q+E Q+E Q     E E E E E E E E E
C#|---------------|-------------|-------------|---------------------|
G#|---------------|-------------|-------------|---------------------|
E |---------------|-------------|-------------|---------------------|
B |---------------|-------------|-------------|----------5h7p5------|
F#|--8---8---8----|--8---8--8---|--7---7---7--|------5-7-------7-x--|
C#|--6---6---6----|--6---6--6---|--5---5---5--|--5-7----------------|
PM

     E E E Q  E E Q
C#|----------(0)-(12)--|
G#|----------(0)-(12)--|
E |--------------------|
B |--------------------| 4X
F#|--5/7\5-2-----------|
C#|--3/5\3-0-----------|
PM

[Interlude 2]
                                                   /3\     / 3 \
     Q+E Q+E Q+E     Q+E Q  Q      Q+E Q+E Q     E+S E E E E E E E
C#|---------------|-------------|-------------|-----------------------|
G#|---------------|-------------|-------------|-----------------------|
E |---------------|-------------|-------------|-----------------------|
B |---------------|-------------|-------------|------------5h7p5------|
F#|--8---8---8----|--8---8--8---|--7---7---7--|--------5-7-------7-x--|
C#|--6---6---6----|--6---6--6---|--5---5---5--|--5---7----------------|
PM

[Interlude 3]
                                                   /3\   /3\ / 3 \
     Q+E Q+E Q+E     Q+E Q  Q      Q+E Q+E Q     E+S E E+S E E E E E
C#|---------------|-------------|-------------|-------------------------|
G#|---------------|-------------|-------------|-------------------------|
E |---------------|-------------|-------------|-------------------------|
B |---------------|-------------|-------------|--------------5h7p5------|
F#|--8---8---8----|--8---8--8---|--7---7---7--|--------5---7-------7-x--|
C#|--6---6---6----|--6---6--6---|--5---5---5--|--5---7------------------|
PM

       /3\   /3\ / 3 \
     E+S E E+S E E E E E
C#|-------------------------|
G#|-------------------------|
E |-------------------------|
B |--------------5h7p5------| 4X
F#|--------5---7-------7-x--|
C#|--5---7------------------|
PM

[Verse 3]
     / 3 \ / 3 \
     E E E E E E E E  Q
C#|----------------------|
G#|----------------------|
E |----------------------|
B |----------------------| 4X
F#|--2-2-2-2-2-2-8/8-8---|
C#|--0-0-0-0-0-0-6/7-6---|
PM   . . . . . .

[Interlude 4] 
       /3\   /3\ / 3 \
     E+S E E+S E E E E Q
C#|-------------------------|
G#|-------------------------|
E |-------------------------|
B |--------------5h7p5------| 2X
F#|--------5---7-------7----|
C#|--5---7------------------|
PM
  
[Verse 4] 
     S  E+S Q  S E+S Q        H   H   H   H   H   H
C#|------------------------|---------------------------|
G#|------------------------|---------------------------|
E |------------------------|---------------------------|
B |------------------------|---------------------------| 4X
F#|--12\11-11--11\10--10---|--5---6---7---5---6---7----|
C#|--10\9--9----9\8---8----|--3---4---5---3---4---5----|
PM                            .   .   .   .   .   .
 
[Interlude 4] 
       /3\   /3\ / 3 \
     E+S E E+S E E E E Q
C#|-------------------------|
G#|-------------------------|
E |-------------------------|
B |--------------5h7p5------| 2X
F#|--------5---7-------7----|
C#|--5---7------------------|
PM

[Verse 5] 
     / 3 \ / 3 \
     E E E E E E E E  Q
C#|----------------------|
G#|----------------------|
E |----------------------|
B |----------------------| 4X
F#|--2-2-2-2-2-2-8/8-8---|
C#|--0-0-0-0-0-0-6/7-6---|
PM   . . . . . .
 
[Interlude 4] 
     /3\   /3\ / 3 \
     E+S E E+S E E E E Q
C#|-------------------------|
G#|-------------------------|
E |-------------------------|
B |--------------5h7p5------| 2X
F#|--------5---7-------7----|
C#|--5---7------------------|
PM
 
[Verse 6] 
     S  E+S Q  S E+S Q        H   H   H   H   H   H
C#|------------------------|---------------------------|
G#|------------------------|---------------------------|
E |------------------------|---------------------------|
B |------------------------|---------------------------| 4X
F#|--12\11-11--11\10--10---|--5---6---7---5---6---7----|
C#|--10\9--9----9\8---8----|--3---4---5---3---4---5----|
PM                            .   .   .   .   .   .
 
[Outro]
     H   H   H   H   H   H
C#|---------------------------|
G#|---------------------------|
E |---------------------------|
B |---------------------------| 7X
F#|--5---6---7---5---6---7----|
C#|--3---4---5---3---4---5----|
PM

 

************************************

| (n)  Ghost note
| \    Slide down
| /    Slide up
| h    Hammer-on
| p    Pull-off
| x    Dead note 

************************************
Suggest correction
Give kudos to tab author, rate the tab!
1 2 3 4 5
comments
print report bad tab
guest
You may want to rate the tab now too:
select rating
Wanna post a correction for this tab? Suggest correction