Oops, an error
Loading. Please wait.

Waiting For The Turning Point tab

version 2
version 2

Whole song

Interactive

3,612 views 6 this week
1 commentread comment
1 2 3 4 5
2 more votes to show rating
add to favorites
×
Save as Personal and add changes to this tab that will be seen only by you. Learn more ›
×
You can save this tab as Personal to edit and correct it or add notes. All changes will be seen only by you. Learn more »
launch autoscroll
font size
0
reset
how to read this tab
guitar tuner
edit
Autoscroll
slow
fast
+/-
esc
set tempo
stop
Artist- Superjoint ritual
Song- waiting for the turning point
tuning- drop d

lol i made this while i was in school so i didnt have time to think it out, so i hope 
helps more than the other tabs...

UPDATE!! (2/21/08) I added more parts to the interlude or the "turning point" your might call it.

Lead and Rhythm
E----------------------------------------------|
B----------------------------------------------|
G----------------------------------------------|
D--2-2--4---2-2---4---2-2---4------------------|
A--2-2--4---2-2---4---2-2---4------------------|
D--2-2--4---2-2---4---2-2---4------------------|
                                       Let Ring
Rhythm guitar (2 times)
E-----------------------------------------------|
B-----------------------------------------------|
G-----------------------------------------------|
D-----4444-----77777----------------------------|
A-----4444-----55555--77777---66666-------------|
D-----4444------------77777---66666-------------|

Lead guitar
E-----------------------------------------------|
B-----------------------------------------------|
G-----------------------------------------------|
D---------------X~~~~~~~~~~---------------------|
A---------------X~~~~~~~~~~---------------------|
D---------------X~~~~~~~~~~---------------------|

Lead and Rhythm (4 times)
E------------------------------------------------|
B------------------------------------------------|
G------------------------------------------------|
D-----4444-----77777-----------------------------|
A-----4444-----55555--77777---66666--------------|
D-----4444------------77777---66666--------------|

 Lead and Rhythm a couple times
E------------------------------------------------|
B------------------------------------------------|
G------------------------------------------------|
D-----444444444444444444444444444-----X*---------|
A-----444444444444444444444444444-----X*---------|
D-----444444444444444444444444444-----X*---------|
*Scrape the the strings up and down like strumming while moving 
down and back up the neck.

       Lead and Rhythm
E----------------------------------------------|
B----------------------------------------------|
G----------------------------------------------|
D--2-2--4---2-2---4---2-2---4------------------|
A--2-2--4---2-2---4---2-2---4------------------|
D--2-2--4---2-2---4---2-2---4------------------|

Lead and Rhythm guitar (2 times)
E------------------------------------------------|
B------------------------------------------------|
G------------------------------------------------|
D-----4444-----77777-----------------------------|
A-----4444-----55555--77777---66666--------------|
D-----4444------------77777—--66666--------------|

Lead and Rhythm
E-----------------------------------------------|
B-----------------------------------------------|
G-----------------------------------------------|
D----1—0---1--0--1-0--1-0--1---0-0-0-0----------|
A----1—0---1--0--1-0--1-0--1---0-0-0-0----------|
D----1-0---1--0--1-0--1-0--1---0-0-0-0----------|
     Tremolo picking------------------|

Lead and Rhythm (4 times)
E-----------------------------------------------|
B-----------------------------------------------|
G-----------------------------------------------|
D----1--1--1--1--0--0-0-0-----------------------|
A----1--1--1--1--0--0-0-0-----------------------|
D----1--1--1--1--0--0-0-0-----------------------|

Lead and Rhythm
E--------------------------------------------------------------------------|
B--------------------------------------------------------------------------|
G--------------------------------------------------------------------------|
D--------------------------------------------------------------------------|
A-0-0-0-0-1-1-1-1-2-2-2-2-3-3-3-3-4-4-4-4-5-5-5-5-6-6-6-6-7-7-7-7-8-4-4-4--|
D-0-0-0-0-1-1-1-1-2-2-2-2-3-3-3-3-4-4-4-4-5-5-5-5-6-6-6-6-7-7-7-7-8-4-4-4--|


Lead and Rhythm
E--------------------------------------------------------------------------|
B--------------------------------------------------------------------------|
G--------------------------------------------------------------------------|
D--------------------------------------------------------------------------|
A--0-0-0-0-1-1-1-1-2-2-2-2-3-3-3-3-4-4-4-4-5-5-5-5-6-6-6-6-7-7-7-7-8-4-----|
D--0-0-0-0-1-1-1-1-2-2-2-2-3-3-3-3-4-4-4-4-5-5-5-5-6-6-6-6-7-7-7-7-8-4-----|

Lead and Rhythm
E----------------------------------------------|
B----------------------------------------------|
G----------------------------------------------|
D--2-2--4---2-2---4---2-2---4------------------|
A--2-2--4---2-2---4---2-2---4------------------|
D--2-2--4---2-2---4---2-2---4------------------|

Lead and Rhythm (4 times)
E-----------------------------------------------|
B-----------------------------------------------|
G-----------------------------------------------|
D-----4444-----77777----------------------------|
A-----4444-----55555--77777---66666-------------|
D-----4444------------77777---66666-------------|

Lead and Rhythm
E----------------------------------------------|
B----------------------------------------------|
G----------------------------------------------|
D--2-2--4---2-2---4---2-2---4------------------|
A--2-2--4---2-2---4---2-2---4------------------|
D--2-2--4---2-2---4---2-2---4------------------|


.....the end...hope you enjoy!!!

            
            
Suggest correction
Creating personal tab
Creating personal tab
You can edit any tab online and save it as your Personal.

You can edit, replace or remove any tab part or add personal notes – all changes will be seen only by you.

Personal tabs can be accessed anytime from any device, even offline.
Learn more »
Give kudos to tab author, rate the tab!
1 2 3 4 5
comments
print report bad tab
1 comment total.
0 reply
death eater 97 Dec 14, 2007 03:10 AM

i couldnt figure out that fast part, so i just sorta keep hitting the 444xxx..

guest
You may want to rate the tab now too:
select rating
Wanna post a correction for this tab? Suggest correction