Oops, an error
Loading. Please wait.

La Resaca Tab

56 views 3 this week
no commentswrite comment
1 2 3 4 5
3 more votes to show rating
add to favorites
launch autoscroll
font size
0
reset
how to read this tab
guitar tuner
×
Best way to learn
"La Resaca"
Autoscroll
slow
fast
+/-
esc
set tempo
stop
Bueno este punteo consiste en la parte del teclado pero la pase
a guitarra esta exacto.

Intro:


1/-0-0-0-0-0--5--0--5--8-8---13-12-7------------/
2/----------------------------------------------/

1/---13--12--7---13--12--7---13--12--5----------/
2/----------------------------------------------/


1/-0-0-0-0-0--5--0--5--8-8---13-12-7------------/
2/----------------------------------------------/

1/---13--12--7---13--12--7---13--12--5----------/
2/----------------------------------------------/


1/-0-0-0-0-0--5--0--5--8-8---13-12-7------------/
2/----------------------------------------------/

1/---13--12--7---13--12--7---13--12--5----------/
2/----------------------------------------------/

00:52

1/-12-10-7-10-12--12-13-12-13-12-12--10-7-10-12-/
2/----------------------------------------------/


1/--12-13-12-13---12-12---10--7--10----12-------/
2/----------------------------------------------/


1/----------3----4----5.....--------------------/
2/----------------------------------------------/


luego lo vuelve a repetir en la cancion
para los pavos del 'jose malky'
Suggest correction
Give kudos to tab author, rate the tab!
1 2 3 4 5
comments
print report bad tab
guest
You may want to rate the tab now too:
select rating
Wanna post a correction for this tab? Suggest correction