Oops, an error
Loading. Please wait.

Tell Me Why tab

version 1
version 1

Whole song

Interactive

4,498 views 3 this week
no commentswrite comment
1 2 3 4 5
x 4
add to favorites
×
Save as Personal and add changes to this tab that will be seen only by you. Learn more ›
×
You can save this tab as Personal to edit and correct it or add notes. All changes will be seen only by you. Learn more »
launch autoscroll
font size
0
reset
how to read this tab
guitar tuner
edit
Autoscroll
slow
fast
+/-
esc
set tempo
stop
Author
                Supermode - Tell Me Why
 (riff from Bronski Beats - Small Town Boy)

A classic tune combined with a good beat to make a great dance song. I think
we'll being seeing a lot more of this very soon.
(Note: In the first few notes you see below play the second 4 very softly)

Main Riff:
e|-----------------------------------------------------------------|
B|---3-----3---3-----2-----2---2-----5-----5---5-----3-----3---3---|
G|-4---4-4---4-----4---4-4---4-----4---4-4---4-----4---4-4---4-----|
D|-----------------------------------------------------------------|
A|-----------------------------------------------------------------|
E|-----------------------------------------------------------------|

Bass/Beat:
e|-----------------------------------------------------------------|
B|-----------------------------------------------------------------|
G|---4---4---4---4---2---2---2---2---9---9---9---9---7---7---7---7-|
D|-----------------------------------------------------------------|
A|-2---2---2---2---0---0---0---0---7---7---7---7---5---5---5---5---|
E|-----------------------------------------------------------------|

Chords:
You can also play along to the song with these simple chords.

   Bm         A        Em        D
(x24432)  (x02220)  (022000)  (xx0232)


Main Riff (High):
e|---10----10--10----9-----9---9-----12----12--12----10----10--10-|
B|-12--1212--12----12--1212--12----12--1212--12----12--1212--12---|
G|----------------------------------------------------------------|
D|----------------------------------------------------------------|
A|----------------------------------------------------------------|
E|----------------------------------------------------------------|

Please rate this tab if you liked it.
Tabbed by NintEndO

            
            
Suggest correction
Creating personal tab
Creating personal tab
You can edit any tab online and save it as your Personal.

You can edit, replace or remove any tab part or add personal notes – all changes will be seen only by you.

Personal tabs can be accessed anytime from any device, even offline.
Learn more »
comments
print report bad tab
guest
You may want to rate the tab now too:
select rating
Wanna post a correction for this tab? Suggest correction