Oops, an error
Loading. Please wait.

Fine Wine tab

40 views 1 this week
no commentswrite comment
1 2 3 4 5
3 more votes to show rating
add to favorites
×
Save as Personal and add changes to this tab that will be seen only by you. Learn more ›
×
You can save this tab as Personal to edit and correct it or add notes. All changes will be seen only by you. Learn more »
launch autoscroll
font size
0
reset
how to read this tab
guitar tuner
edit
Autoscroll
slow
fast
+/-
esc
set tempo
stop
Author
[Intro]
   (G)                               (Em)
E-------------3------3---5b5b5b5---3-------------------------|
B--0--3--5-----5--------------------------5---3---5----------|
G------------------------------------------------------------|
D------------------------------------------------------------|
A------------------------------------------------------------|
E------------------------------------------------------------|

  (G)                                (Em)
E—5s7----------------------------------------3-----5-------|
B--------8--5-8------5-----3----5----3----5-----5-----5------|
G------------------------------------------------------------|
D------------------------------------------------------------|
A------------------------------------------------------------|
E------------------------------------------------------------|

  (G)                                (Em)
E---0--3---5---7-------------------------10------------------|
B---------------------8--5-8---10---12-------12--------------|
G------------------------------------------------------------|
D------------------------------------------------------------|
A------------------------------------------------------------|
E------------------------------------------------------------|

  (G)                                (Em)
E--12--10----------------7---5---3------------3--------------|
B-----------12--10----8---------------5---3------------------|
G------------------------------------------------------------|
D------------------------------------------------------------|
A------------------------------------------------------------|
E------------------------------------------------------------|

  (G)                                (Em)
E----17b17b17b17b17-17-15------------------------------------|
B----------------------------------17--15--17----------------|
G------------------------------------------------------------|
D------------------------------------------------------------|
A------------------------------------------------------------|
E------------------------------------------------------------|

  (G)                                (Em)
E---17b17b17b17b17 17-15-------------------------------------|
B---------------------------------17--15--17-----------------|
G------------------------------------------------------------|
D------------------------------------------------------------|
A------------------------------------------------------------|
E------------------------------------------------------------|

  (G)                                (Em)
E----------------------------------7--------------------------|
B--17-15-12--15-12-10--8-----8--5--8-5-3-5--------------------|
G-------------------------------------------------------------|
D-------------------------------------------------------------|
A-------------------------------------------------------------|
E-------------------------------------------------------------|

  (G)                                (Em)
E------3-------------3--------0-------0-----0----------------|
B--5------5--3--5------5--------0------0--0------------------|
G------------------------------------------------------------|
D------------------------------------------------------------|
A------------------------------------------------------------|
E------------------------------------------------------------|

[Verse 1]
  (G)                                (Em)
E-----------------------------------------------------------------|
B-----------------------------------------------------------------|
G-----------------------------------------------------------------|
D-----------5---------------------2----2--------------------------| x4
A-------5------5--------------2----2-----2------------------------|
E---3----------------------0--------------------------------------|

  (G)                                (Em)
E----------------------------------------------------------------|
B-----------8----------------------------------------------------|
G-------7-----7--------------------------------------------------|
D---5-----------------------------2-----2------------------------| x4
A------------------------------2-----2-----2---------------------|
E--------------------------0-------------------------------------|

  (G)                                (Em)
E--------------------------------------------------------------|
B---8--8---8--8--8------5---5----5---5----5--------------------|
G---7--7---7--7--7------4---4----4---4----4--------------------|
D---5--5---5--5--5------2---2----2---2----2--------------------| x4
A--------------------------------------------------------------|
E--------------------------------------------------------------|

  (G)                                (Em)
E--------------3----3--5--------------------------------------|
B---0--3--5-----5--------------5------------------------------|
G------------------------------4------------------------------|
D------------------------------2---2--------------------------|
A-------------------------------------------------------------|
E-------------------------------------------------------------|

  (G)                                (Em)
E--5--7-7--5--------------------------------------------------|
B---------------5--8--5--------5---5---5---5------------------|
G------------------------------4---4---4---4------------------|
D------------------------------2---2---2---2------------------|
A-------------------------------------------------------------|
E-------------------------------------------------------------|

  (G)                                (Em)
E--10--12-10-------------------------------------------------|
B---------------12-10-8-5-----5--5---5----5------------------|
G------------------------------4--4---4----4-----------------|
D------------------------------2--2---2----2-----------------|
A------------------------------------------------------------|
E------------------------------------------------------------|

  (G)                                (Em)
E-3-5-7------------------------------------------------------|
B---------8-5-3-5-3--5-------5--5---5---5---5----------------|
G-----------------------------4--4---4---4---4---------------|
D-----------------------------2--2---2---2---2---------------|
A------------------------------------------------------------|
E------------------------------------------------------------|

  (G)                                (Em)
E--0-3-5-7-10-12-15-17-19-----------------------------------------|
B----------------------------------0-3-5-8-10-12-15-17-19---------|
G-----------------------------------------------------------------|
D-----------------------------------------------------------------|
A-----------------------------------------------------------------|
E-----------------------------------------------------------------|

[Verse 2]

  (G)                                (Em)
E-----3----5--3--------------0-0----3-0----------------------|
B--3----3--------5--3----0-----0--------3--0-----------------|
G------------------------------------------------------------|
D------------------------------------------------------------| x4
A------------------------------------------------------------|
E------------------------------------------------------------|

  (G)                                (Em)
E------3----------3---------------0----------0------3--------|
B--3--------3---------------0----------0--------0------------|
G------------------------------------------------------------|
D------------------------------------------------------------| x8
A------------------------------------------------------------|
E------------------------------------------------------------|

  (G)                                (Em)
E---3--3—5h3-------3-----0---0---3h0----------0--------------|
B---3--3---------5h3-3-----0---0----------3h0---0------------|
G------------------------------------------------------------|
D------------------------------------------------------------| x4
A------------------------------------------------------------|
E------------------------------------------------------------|

  (G)                                     (Em)
E---15--15—17h15------------12--12---15----------------------|
B---15--15-----------17h15 ---12--12-------------------------|
G------------------------------------------------------------|
D------------------------------------------------------------|
A------------------------------------------------------------|
E------------------------------------------------------------|

  (G)                                (Em)
E------3----------3---------------0----------0------3--------|
B--3--------3---------------0----------0--------0------------|
G------------------------------------------------------------|
D------------------------------------------------------------|
A------------------------------------------------------------|
E------------------------------------------------------------|

  (G)                                (Em)
E-------15--------15------------12---------12--------15------|
B--15--------15------------12--------12----------12----------|
G------------------------------------------------------------|
D------------------------------------------------------------|
A------------------------------------------------------------|
E------------------------------------------------------------|

            
            
Suggest correction
Creating personal tab
Creating personal tab
You can edit any tab online and save it as your Personal.

You can edit, replace or remove any tab part or add personal notes – all changes will be seen only by you.

Personal tabs can be accessed anytime from any device, even offline.
Learn more »
Give kudos to tab author, rate the tab!
1 2 3 4 5
comments
print report bad tab
guest
You may want to rate the tab now too:
select rating
Wanna post a correction for this tab? Suggest correction