Oops, an error
Loading. Please wait.

Kevin Mc Allister Tab

208 views 1 this week
no commentswrite comment
1 2 3 4 5
3 more votes to show rating
add to favorites
launch autoscroll
font size
0
reset
how to read this tab
guitar tuner
×
Best way to learn
"Kevin Mc Allister"
Autoscroll
slow
fast
+/-
esc
set tempo
stop
Simplemente he añadido la linea del guitarra solista a la
 tablatura que ya estaba.


SIbm
Diciembre está al llegar
    SOL#       DO#
se nota ya el ambiente en la ciudad
     SIm
Me empiezo a preguntar
    SOL#          DO#
si Kevin tiene un plan

   SIbm
La gente está al llegar
   SOL#        DO#
Kevin monta una fista en el local
SIbm
Mucho M.D.A.
 SOL#         DO#
lo vamos a flipar

   SIbm        FA#
M.G.M.T va a sonar

SIbm SOL#  DO#        FA#
Esta noche voy a reventar
SIbm    SOL#          DO#
dime si tu quieres volar
SIbm SOL#  DO#          FA#
Vámonos a la parte de atrás
SIbm            FA#
tengo que disimular

SIbm       FA#            DO#     SOL#
Esta noche alguien va a probar mi barra de metal
La que no se enfría jamás, siempre está hirviendo
Y ahora yo quiero jugar a ser gigante
Pensemos en horizontal, yo voy delante

E----------------------------------------------]
B--18-18-14-14-11-11-13-13---------------------]
G--------------------------6-6-8-8-11-11-10-10-]
D----------------------------------------------]
A----------------------------------------------]
E----------------------------------------------]

E----------------------------------------------]
B--18-18-14-14-11-11-13-13-13s14-14-14-14-14---]
G----------------------------------------------]
D----------------------------------------------]
A----------------------------------------------]
E----------------------------------------------]

E------------------------------------------------------------]
B--18-18-14-14-11-11-13-13-----------------------------------]
G--------------------------6-6-8-8-11-11-10-10-10-10-10-10...]
D------------------------------------------------------------]
A------------------------------------------------------------]
E------------------------------------------------------------]

SIbm
Mi 'bro' está fatal
SOL#         DO#
y va pegando tumbos por el bar
SIbm            SOL#        DO#
Este pasa ya de todo el material
SIbm           FA#
le cuesta respirar


Se despierta, empieza a recordar
tiene que disimular
Vámonos a la parte de atrás
esto va a empezar

Esta noche alguien va a probar mi barra de metal
La que no se enfría jamás, siempre está hirviendo
Y ahora yo quiero jugar a ser gigante
Pensemos en horizontal, yo voy delante

E----------------------------------------------]
B--18-18-14-14-11-11-13-13---------------------]
G--------------------------6-6-8-8-11-11-10-10-]
D----------------------------------------------]
A----------------------------------------------]
E----------------------------------------------]

E----------------------------------------------]
B--18-18-14-14-11-11-13-13-13s14-14-14-14-14---]
G----------------------------------------------]
D----------------------------------------------]
A----------------------------------------------]
E----------------------------------------------]

E------------------------------------------------------------]
B--18-18-14-14-11-11-13-13-----------------------------------]
G--------------------------6-6-8-8-11-11-10-10-10-10-10-10...]
D------------------------------------------------------------]
A------------------------------------------------------------]
E------------------------------------------------------------]

Esta noche alguien va a probar
ahora yo quiero jugar
Esta noche alguien va a probar
Esta noche alguien va a probar mi barra de metal

Esta noche alguien va a probar mi barra de metal
la que no se enfría jamás siempre está hirviendo

Y ahora yo quiero jugar a ser gigante
Pensemos en horizontal
en horizontal

E----------------------------------------------]
B--18-18-14-14-11-11-13-13---------------------]
G--------------------------6-6-8-8-11-11-10-10-]
D----------------------------------------------]
A----------------------------------------------]
E----------------------------------------------]

E----------------------------------------------]
B--18-18-14-14-11-11-13-13-13s14-14-14-14-14---]
G----------------------------------------------]
D----------------------------------------------]
A----------------------------------------------]
E----------------------------------------------]

E------------------------------------------------------------]
B--18-18-14-14-11-11-13-13-----------------------------------]
G--------------------------6-6-8-8-11-11-10-10-10-10-10-10...]
D------------------------------------------------------------]
A------------------------------------------------------------]
E------------------------------------------------------------]


Acaba con un Sibm
Suggest correction
Give kudos to tab author, rate the tab!
1 2 3 4 5
comments
print report bad tab
guest
You may want to rate the tab now too:
select rating
Wanna post a correction for this tab? Suggest correction