Oops, an error
Loading. Please wait.

Ola De Calor Bass Tab

79 views 3 this week
no commentswrite comment
1 2 3 4 5
3 more votes to show rating
add to favorites
launch autoscroll
font size
0
reset
guitar tuner
Autoscroll
slow
fast
+/-
esc
set tempo
stop
Help us to improve Ultimate-Guitar.com Take our survey!
×
A petición de algunas personas que no han encontrado tablatura para bajo


|------------------------------------------------------------------|
|-------------------------------------------------7-7-7-7-7-7-7-7--|
|--------------------------6-6--6-6--6-6--6-6--6-------------------|
|----5-5---5-5---5-5---5-5-----------------------------------------|

|------------------------------------------------------------------|
|------------------------------------------------------------------|
|------------------------------------------------------------------|
|-------------0--3--0?5]0------------------------------------------|X4

Y no podré volar el aire aquí podrá conmigo:
|----------------------------------------9-------------------------|
|----------------------7-----5-------------------------------------|X4
|-------------------------------3-3?-3]7---7-----------------------|
|-5]17-17-17---------5---5--3--------------------0-5---------------|

|-------------------------------------7--------------5-------------|
|----------------------------------------7-------------------------|
|-----8-8-8-8----10-10-10-10----5-5-5--------3-3-3-3---------------|
|------------------------------------------------------------------|

|------------------------------------------------------------------|
|------------------------------------------------------------------|
|-----8-8-8-8-8-8-8-8-8-8-8-8-8-8-8-8-8-8-8-8-8-8-8----------------|
|------------------------------------------------------------------|

Y gritarás y gritarás:
|------------------------------------------------------------------|
|-------------------5----------------------------------------------|X2
|------------------------------------------5]8-8-8-8------8-8-8-8--|
|-5-5-5-5-5-5-5-0-3-----5-5-5-5-5-5-5-0-3-5----------0-6-8---------|

|------------------------------------------------------------------|
|------------------------------------------------------------------|
|------------------------------------------------------------------|
|-------------0--3--0?5]0------------------------------------------|X4

El tiempo pasará y no habremos envejecido?:
|----------------------------------------9-------------------------|
|----------------------7-----5-------------------------------------|X4
|-------------------------------3-3?-3]7---7-----------------------|
|-5]17-17-17---------5---5--3--------------------0-5---------------|

|-------------------------------------7--------------5-------------|
|----------------------------------------7-------------------------|
|-----8-8-8-8----10-10-10-10----5-5-5--------3-3-3-3---------------|
|------------------------------------------------------------------|


|------------------------------------------------------------------|
|------------------------------------------------------------------|
|-----8-8-8-8-8-8-8-8-8-8-8-8-8-8-8-8-8-8-8-8-8-8-8----------------|
|------------------------------------------------------------------|

Y gritarás y gritarás:
|------------------------------------------------------------------|
|-------------------5----------------------------------------------|X2
|------------------------------------------5]8-8-8-8------8-8-8-8--|
|-5-5-5-5-5-5-5-0-3-----5-5-5-5-5-5-5-0-3-5----------0-6-8---------|

Solo
|------------------------------------------------------------------|
|------------------------------------------------------------------|
|---0]--8-8-8-8-8-8-8-8?--8]10-10-10-10-10-10-10-10----------------|
|------------------------------------------------------------------|

|------------------10-9--------------------------------------------|
|----14-12-10-----------9-10]12------------------------------------|
|------------------------------------------------------------------|
|------------------------------------------------------------------|

|-----------------------------------------------------5------------|
|------------------------------------------------------------------|
|-----8-8-8-8----10-10-10-10----5-5-5-5-------3-3-3-3--------------|
|------------------------------------------------------------------|

|------------------------------------------------------------------|
|------------------------------------------------------------------|
|-----8-8-8-8----10-10-10-10----5-5-5-5----------------------------|
|----------------------------------------5-5-5-5-------------------|
Suggest correction
Give kudos to tab author, rate the tab!
1 2 3 4 5
comments
print report bad tab
guest
You may want to rate the tab now too:
select rating
Wanna post a correction for this tab? Suggest correction