Oops, an error
Loading. Please wait.

Xxi Tab

127 views 1 this week
no commentswrite comment
1 2 3 4 5
3 more votes to show rating
add to favorites
launch autoscroll
font size
0
reset
how to read this tab
guitar tuner
Autoscroll
slow
fast
+/-
esc
set tempo
stop
Help us to improve Ultimate-Guitar.com Take our survey!
×
Intro

Am     .577555
A7sus4 .575755
       .575855
  

Tab

e---------------------------------------------------------
B---------------------------------------------------------
G---------------------------------------------------------
D---------------------------------------------------------
A-----7-------------5-5-----5-5-7-----5---5-5-------------
E---5---8---5---7-------8-8--------5-7--------8-8-7-7-5---


2ªGuitarra
e---------------------------------
B---------------------------------
G---------------------------------
D----7-7-5-5----------------------
A------------5-5-7-7--------------
E---------------------------------


   Am     E7         Am          E7              Am

Somos la generación de un cambio climático radical.
Individuos que andan por el mundo sin centro de gravedad.
Universalmente conectados por magia electroviral.

Am                     Am
Somo herederos de algo que ya no queremos,
       Am                                       E7
de algo que hace mucho tiempo establecieron 4 viejos.

Dm              Am

Bichos del XXI, juntemos nuestros puños

E7                           Am    A

para romper el próximo escalón.

Dm               Am

Bichos del XXI, no es nuestro futuro,

E7                               Am

vamos a dejar bien alto el pabellón.

(Punteo Inicial)

(se vuelven a repetir los acordes de las estrofas Y estribillo)

Bastará con que gritemos juntos,
de mi no se reirán.
Saltará a la vista que en intelecto nunca nos van a pillar.
Se reflejará en nuestras caras
el brillo de la verdad.
Se abrirán las puertas que nunca
han estado abiertas por las que hace mucho
tiempo construyeron cuatro viejos.

Bichos del XXI, juntemos nuestros puños
para romper el próximo escalón.
Bichos del XXI, no es nuestro futuro,
vamos a dejar bien alto el pabellón.
Suggest correction
Give kudos to tab author, rate the tab!
1 2 3 4 5
comments
print report bad tab
guest
You may want to rate the tab now too:
select rating
Wanna post a correction for this tab? Suggest correction