Oops, an error
Loading. Please wait.

Bloody Well Right Tab

version 1
version 1

Intro

Whole song

Interactive

9,823 views 3 this week
1 commentread comment
1 2 3 4 5
1 last vote to show rating
add to favorites
launch autoscroll
font size
0
reset
how to read this tab
guitar tuner
Autoscroll
slow
fast
+/-
esc
set tempo
stop
Help us to improve Ultimate-Guitar.com Take our survey!
×
Author
Difficulty
intermediate
----------------------------------------------------------------------------
                       Bloody Well Right - Supertramp
----------------------------------------------------------------------------
Tabbed by: ZedLep19
Email:

Tuning: EADGBe

first a crazy ass keyboard intro then the guitar part
sorry about the length i like to space things out a bit
it may not be exactly right but if you have corrections comment me

 with wah pedal
e|------------------6--6h8p6------------------------------------------------|
B|----------6--6/8-------------------4--3h4p3-------------------------------|
G|-----5h7--------------------5b7r5------------5--3--5b7--5b7r5-------------|
D|--8------------------------------------------------------------3--5-------|
A|--------------------------------------------------------------------------|
E|--------------------------------------------------------------------------|

e|----------------------------------------6-------6-------------------------|
B|---------6b8r6b8r6b8--6b8r6b8r6b8--6b8-----6b8-----6b8--6b8r6-------------|
G|--3h5p3--------------------------------------------------------5b7--5b7---|
D|--------------------------------------------------------------------------|
A|--------------------------------------------------------------------------|
E|--------------------------------------------------------------------------|
                                              without wah pedal
e|-------------------------------XXXXXXXXXXXX-------------------------------|
B|-------------------------------XXXXXXXXXXXX--9--9p8--9--9b11r9--8--9------|
G|--3--5b7--5b7--5b7r5--3--------XXXXXXXXXXXX---------------------------7---|
D|-------------------------5--3--XXXXXXXXXXXX-------------------------------|
A|-------------------------------XXXXXXXXXXXX-------------------------------|
E|-------------------------------XXXXXXXXXXXX-------------------------------|

e|-------------------------------------------------------------13--15p13----|
B|--9--9p8--9--9b11r9--8--9-----9--9--8--9--11--13--13/15--15------------16-|
G|--------------------------------------------------------------------------|
D|---------------------------8----------------------------------------------|
A|--------------------------------------------------------------------------|
E|--------------------------------------------------------------------------|

e|---------18--18h20--18----------------------------------------------------|
B|--16/20-------------------------------------------------------------------|
G|--------------------------------------------------------------------------|
D|--------------------------------------------------------------------------|
A|--------------------------------------------------------------------------|
E|--------------------------------------------------------------------------|


| r  release
| /  slide up
| \  slide down
| h  hammer-on
| p  pull-off
| ~  vibrato
| +  harmonic
| x  Mute note
============================================================================
Suggest correction
Give kudos to tab author, rate the tab!
1 2 3 4 5
comments
print report bad tab
1 comment total.
+1 reply
El Gigante 72 Jun 22, 2009 11:15 AM

Fantastic! I am really hoping you are planning on tabbing out the rest sometime!

guest
You may want to rate the tab now too:
select rating
Wanna post a correction for this tab? Suggest correction